Guitar Tabs
song title    band name

Join Us Today!

Don't strum alone...
be a part of the largest online Christian music community. Browse thousands of guitar tabs and chat w/ musicians like yourself.


It's Free!

This tab has been rated a 4.67 out of 5 for accuracy. (3 votes)Sorry, but you must be logged in to rate this tab.
Click here to log-in, or you can click here to register.
(Registration is free)

All songs owned by corresponding publishing company. If you make copies of any song on this website, be sure to report your usage to CCLI.
Submitted by: friend.of.god

Band: Disciple
Song: Regime Change
Album: Scars Remain 2006
Tabbed by: Friend.Of.God
Tuning: Drop C
Key: Eb

i felt that the other tabs on this site weren't accurate enough, so i changed
chords, and added the other guitar parts...i changed a lot

INTRO:

GUITAR 1:
D-----22-22-22-22-22--22-22-22-22-22-----------------
A----------------------------------------------------
F----------------------------------------------------
C----------------------------------------------------
G----------------------------------------------------
C----------------------------------------------------

(IF YOU DONT HAVE 22 FRETS ON YOUR GUITAR, YOU CAN PLAY IT ON 10)

GUITAR 1:
D---------------------------------------------------
A---------------------------------------------------
F---------------------------------------------------
C-0-0-0-0-------------------------------------------
G-0-0-0-0-------------------------------------------
C-0-0-0-0--0-0-0--0--0------------------------------        x4

GUITAR 1:
D------------------------------------------------
A------------------------------------------------
F------------------------------------------------
C-0-0-0-0--0-0-0--0--0---------------------------
G-0-0-0-0--0-0-0--0--0---------------------------
C-0-0-0-0--0-0-0--0--0---------------------------          x4

GUITAR 2:
D-----22-22-22-22-22--22-22-22-22-22-----------------
A----------------------------------------------------
F----------------------------------------------------
C----------------------------------------------------
G----------------------------------------------------
C----------------------------------------------------       	x4

"BUILD IT UP, I'LL TEAR IT DOWN!"
GUITAR 1:

D------------------------------------------------
A------------------------------------------------
F------------------------10b---------------------
C-0-0-0-0--0-0-0--0--0---------------------------
G-0-0-0-0--0-0-0--0--0---------------------------
C-0-0-0-0--0-0-0--0--0---------------------------       	x4

THE BEND GOES UP TO THE NOTE EQUAL WITH FRET 13
IT'S NOT HARD TO REACH IN DROP C TUNING (FRET 13 = A#)

VERSE:
"MY FINGERS IN THE STRINGS..."

GUITAR 1:
D------------------------------------------------
A------------------------------------------------
F------------------------------------------------
C-0---0------------------0---0-----------0---0---
G-0---0------------------0---0-----------0---0---
C-0---0------------------0---0-----------0---0---

GUITAR 2: 

D--------------------------------------------------------
A--------------17-16--------17-16-19------17-16----------
F----------------------18----------------------------16--
C--------------------------------------------------------
G--------------------------------------------------------
C--------------------------------------------------------         x2

GUITAR 1:
D-------------------------------------------
A-------------------------------------------
F-------------------------------------------
C-0---0-------------0---0-----------0---0---
G-0---0-------------0---0-----------0---0---
C-0---0-------------0---0-----------0---0---

GUITAR 2:
D------------------------------------------------------------------------
A------------------------------------------------------------------------
F------------------------------0-----------------------------------------
C--------3-2-0-------------3-2--------------3-2-0-3-2-0-3-2-3-2----------
G---------------------------------------------------------------3--------
C------------------------------------------------------------------------             x2

BOTH:
D--------------------------------------------------
A--------------------------------------------------
F---------------------------------------------------
C-3--3-3-3-3-3-3---5-5-5-----------------------
G-3--3-3-3-3-3-3---5-5-5-----------------------
C-3--3-3-3-3-3-3---5-5-5-----------------------

CHORUS:
"THIS IS WHAT I WANT..."

GUITAR 1:
D----------------------------------------------------------------------
A----------------------------------------------------------------------
F-----------------------------------------------------------------------
C--3---2---5---2---3-------2-------------3---2---5---2---3-------5
G--3---2---5---2---3-------2-------------3---2---5---2---3-------5
C--3---2---5---2---3-------2-------------3---2---5---2---3-------5       x2

GUITAR 2:
D------------------------------------------------------------------------
A------------------------------------------------------------------------
F--10--9---12--9--10---------------------10--9---12--9---10----12
C------------------------------------------------------------------------
G------------------------------------------------------------------------
C------------------------------------------------------------------------   	x2

VERSE 2:
"SCENE OF COMPLACENCY..."

(SAME AS VERSE 1, BUT PLAY EACH CHORD 3 TIME, NOT 2)

CHORUS

BRIDGE:

GUITAR 1:
D--------------------------------------------------
A--------------------------------------------------
F---------------------------------------------------
C--3--------8-------5-------8--------------------
G--3--------8-------5-------8--------------------
C--3--------8-------5-------8----10-12-10-8---

GUITAR 2:
D--------------------------------------------------
A--------------------------------------------------
F-----5---------5---------------------------------
C--------3---------5---5--6------17-19-17-15-
G--------------------------------------------------
C--------------------------------------------------

GUITAR 1:
D--------------------------------------------------
A--------------------------------------------------
F---------------------------------------------------
C--3--------8-------5-------8--7--8--7--8-7----
G--3--------8-------5-------8--7--8--7--8-7----
C--3--------8-------5-------8--7--8--7--8-7----

GUITAR 2:
D--------------------------------------------------
A--------------------------------------------------
F-----5---------5---------------------------------
C--------3---------5---5--6---------------------
G--------------------------------------------------
C--------------------------------------------------

PRE-SOLO:

GUITAR 1:
D--------------------------------------------------
A--------------------------------------------------
F----10--------9----10--------9-----------------
C--------7-12-----------7-12---7-12-----------
G--------------------------------------------------
C--------------------------------------------------

THIS IS PLAYED ALL THE WAY UP TO THE SOLO
(TOTAL OF 16 TIMES)

GUITAR 2:
D----------------------------------------------------
A----------------------------------------------------
F----------------------------------------------------
C-0-0-0-0--0-0-0--0--0---------------------------
G-0-0-0-0--0-0-0--0--0---------------------------
C-0-0-0-0--0-0-0--0--0---------------------------

THIS IS BROKEN DOWN TO 4 PARTS EVERY TIME GUITAR 1 PLAYS THE ABOVE x4
1. SILENT
2. ONLY LOW 'C' STRING
3. ALL 3 STRINGS PALM MUTED
4. ALL 3 STRING FULL BLAST

SOLO: WHICH I'M VERY SORRY I COULDN’T FIGURE OUT
IF I EVER FIGURE IT OUT, I'LL POST IT AS SEPARATE TAB.

CHORUS

OUTRO:

"SO SORRY, TRY TO UNDERSTAND..."
GUITAR 1:
D---------------------------------------------------
A---------------------------------------------------
F---------------------------------------------------
C--0----2----3----0---------------------------------
G--0----2----3----0---------------------------------
C--0----2----3----0---------------------------------     x4

GUITAR 2:
D---------------------------------------------------
A---------------------------------------------------
F--7---9----10----5---------------------------------
C---------------------------------------------------
G---------------------------------------------------
C---------------------------------------------------     x4

"SO SORRY!!!"
BOTH:
D------------------------------------------------
A------------------------------------------------
F------------------------------------------------
C-0-0-0-0--0-0-0--0--0---------------------------
G-0-0-0-0--0-0-0--0--0---------------------------
C-0-0-0-0--0-0-0--0--0---------------------------          x3

i know the band only has 1 guitarist, but this song has 2 parts.
this was a hard tab to figure out, my iTunes play count is over 1000.
my favorite band, AND song
ENJOY!!!

Comments about this tab

giantslayer20 - 2009-12-05

This is the best tab I've been able to find for this song, however, I don't think the chorus is right. I found a video on youtube where you can watch his hands for the first run through the chorus. (http://www.youtube.com/watch?v=6ftRWA98jNE)

What I came up with was

F - - 10 9 5 7 3 5
C - - 10 9 5 7 3 5
G - - 8 7 3 5 1 3
C - 0 - - - - - -

Also, for the part right before the chorus, I got (-133--) (-355--) (Ab Bb).


giantslayer20 - 2009-12-05

One more little thing. In the part for Guitar 2 two sections above the chorus, I think it should be

C - 3 2 - - 3 2 5
G - - - 3 - - - -

instead of

F - - - - - - - 0
C - 3 2 0 - 3 2 -


Add a comment/correction

Complimentary Christian Ringtones
Dadamobile and CGR have teamed up to bring your favorite Christian artists right to your phone. Sign up today and get 10 complementary ringtones!
Tab Country
Did you know CGR has a sister site w/ country guitar tabs? Well we do! Its called Tab Country. It has a great archive with a lot of country tabs.
Rockin Tabs
Are you looking for a site that has rock guitar tabs? Then Rockintabs.com is the place for you. It is a budding site with many rock guitar tabs. Submit your tab today.
Tab Gallery
Tab Gallery has a compilation of christian, rock, and country tabs all in one place. Come visit us.