Guitar Tabs
song title    band name

Join Us Today!

Don't strum alone...
be a part of the largest online Christian music community. Browse thousands of guitar tabs and chat w/ musicians like yourself.


It's Free!

This tab has not yet been rated for accuracy.Sorry, but you must be logged in to rate this tab.
Click here to log-in, or you can click here to register.
(Registration is free)

All songs owned by corresponding publishing company. If you make copies of any song on this website, be sure to report your usage to CCLI.
Submitted by: armorontherock

Let's go Back
by Everyday Sunday

intro

e------------------------------------------------------------------------------
b----4-4-6-6-8-8-8-8---1-1-3-3----------4-4-6-6-8-8-8--9-9-8-8-9---11-11-11-11-
g------------------------------3-3-3-3-----------------------------------------
d------------------------------------------------------------------------------
a------------------------------------------------------------------------------
e------------------------------------------------------------------------------

then a guitar comes in doing these cords 

D# G# C A#

I think it is basically the same cords threw the whole song except in the 
bridge but I have no idea what they are... so I hope this helps

Joe  

Comments about this tab

Oh!Gravity - 2007-08-27

It's tuned half step down. I had a tab up before CGR got hacked, and I've been too lazy to put it back up. I might do it soon. It has to be tuned half step down, because the intro has an open high E string through the whole intro, and the D# is an octave lower.


jcka - 2008-08-02

This part is good, but when the chords begin, I think it goes:

e----------------------------------------------------------------------------
b----11-11-11-9-9-9-8----11-11-11-9-9-9-8----6-6-6-8-8-8-4-4--6-6-6-8-8-8-4-4
g---------------------8-------------------8----------------------------------
d----------------------------------------------------------------------------
a----------------------------------------------------------------------------
e----------------------------------------------------------------------------


Add a comment/correction

Complimentary Christian Ringtones
Dadamobile and CGR have teamed up to bring your favorite Christian artists right to your phone. Sign up today and get 10 complementary ringtones!
Tab Country
Did you know CGR has a sister site w/ country guitar tabs? Well we do! Its called Tab Country. It has a great archive with a lot of country tabs.
Rockin Tabs
Are you looking for a site that has rock guitar tabs? Then Rockintabs.com is the place for you. It is a budding site with many rock guitar tabs. Submit your tab today.
Tab Gallery
Tab Gallery has a compilation of christian, rock, and country tabs all in one place. Come visit us.