Guitar Tabs
song title    band name

Join Us Today!

Don't strum alone...
be a part of the largest online Christian music community. Browse thousands of guitar tabs and chat w/ musicians like yourself.


It's Free!

This tab has been rated a 4.00 out of 5 for accuracy. (1 vote)Sorry, but you must be logged in to rate this tab.
Click here to log-in, or you can click here to register.
(Registration is free)

All songs owned by corresponding publishing company. If you make copies of any song on this website, be sure to report your usage to CCLI.
Submitted by: GGMTTTP

Treason
Kutless
Sea of Faces
Bec Records

Drop Db tuning
(for Db tuning tune your guitar to the first fret except for the low E string, tune it to the
fourth string on the first fret)

x= mute
/= slide up
\= slide down
Intro

eb |----------------------------------------------|
bb |----------------------------------------------|
gb |----------------------------------------------|
db |-0--4--xx-7-0--4--xx-7--0--4--xx-7-0-4-2-4-2-4|
ab |-0--4--xx---0--4--xx----0--4--xx-7-0-4-2-4-2-4|
db |-0--4--xx---0--4--xx----0--4--xx-7-0-4-2-4-2-4|2x

Verse 1 & 2

eb |-------------------------------------------------------|
bb |-------------------------------------------------------|
gb |-------------------------------------------------------|
db |9---7---0--4--xx-7--0--4--xx-7--0--4--xx-7--0--4-2-4-2/|
ab |9---7---0--4--xx----0--4--xx----0--4--xx----0--4-2-4-2/|
db |9---7---0--4--xx----0--4--xx----0--4--xx----0--4-2-4-2/|

eb |------------------------------------------------------------|
bb |------------------------------------------------------------|
gb |------------------------------------------------------------|
db |9---7---0--4--xx-7--0--4--xx-7--0--4--xx-7--0--4-2-4-2-2-0-x|
ab |9---7---0--4--xx----0--4--xx----0--4--xx----0--4-2-4-2-2-0-x|
db |9---7---0--4--xx----0--4--xx----0--4--xx----0--4-2-4-2-2-0-x|

Chorus

eb |------------------------------------------|
bb |------------------------------------------|
gb |------------------------77----77----------|
db |-4------7------0-xx-0-----99----22--0-2-4-|
ab |-4------7------0-xx-0-----99----22--0-2-4-|
db |-4------7------0-xx-0-----99----22--0-2-4-|2x

Intro
Verse 2

Bridge

eb |--------------------------------------5-------5-------5-----|
bb |------------------------------------------------------------|
gb |------------------------------------------------------------|
db |-----2-4-----2-4-----2-44-2-4-2-4-5-4---4-5-4---4-5-4---9\2-|
ab |-5-4-2-4-5-4-2-4-5-4-2-44-2-4-2-4-5-4---4-5-4---4-5-4---9\2-|
db |-----2-4-----2-4-----2-44-2-4-2-4-5-4---4-5-4---4-5-4---9\2-|

eb |------5-------5-------5-------------|
bb |------------------------------------|
gb |------------------------------------|
db |-4-5-4---4-5-4---4-5-4---9\00--2--0-|
ab |-4-5-4---4-5-4---4-5-4---9\00--2--0-|
db |-4-5-4---4-5-4---4-5-4---9\00--2--0-|

chorus 2x
Intro

to see a video of this song go to youtube.com and search Kutless- Treason and it like the third
one down he has a Gibson SG and his name is Borah Lion and the way he plays it he made up i just
tabbed it for him. So the credit goes to him.

Comments about this tab

No comments/corrections found. Add your own

Complimentary Christian Ringtones
Dadamobile and CGR have teamed up to bring your favorite Christian artists right to your phone. Sign up today and get 10 complementary ringtones!
Tab Country
Did you know CGR has a sister site w/ country guitar tabs? Well we do! Its called Tab Country. It has a great archive with a lot of country tabs.
Rockin Tabs
Are you looking for a site that has rock guitar tabs? Then Rockintabs.com is the place for you. It is a budding site with many rock guitar tabs. Submit your tab today.
Tab Gallery
Tab Gallery has a compilation of christian, rock, and country tabs all in one place. Come visit us.