Guitar Tabs
song title    band name

Join Us Today!

Don't strum alone...
be a part of the largest online Christian music community. Browse thousands of guitar tabs and chat w/ musicians like yourself.


It's Free!

This tab has not yet been rated for accuracy.Sorry, but you must be logged in to rate this tab.
Click here to log-in, or you can click here to register.
(Registration is free)

All songs owned by corresponding publishing company. If you make copies of any song on this website, be sure to report your usage to CCLI.
Submitted by: schecter777

Relient K-The Best Thing
Album-Five Score And Seven Years Ago
Tune down 1/2 step (Eb)

This song is already submitted, but they’re chords, so here’s the tab. Another thing: you could probably play this in standard tuning, but I’m tabbing it in Eb because most of the other songs from FSASYA are in Eb.
So if you want to play it in standard, just move the notes down 1 fret.

Key:
~=let ring
.=palm mute
()=volume swell
x=mute


Intro
Gb[--5~~~---9~~-------7~~-------5~~~~~--]
Db[--5~~~--10~~--3~~--7~~--5~~--5~~~~~--]
Ab[--3~~~---7~~--3~~--5~~--5~~--3~~~~~--]
Eb[--------------1~~-------3~~----------]

Verse 1
Gb[--5---5---5----------5---5---5-----------9----9----9------------------------------]
Db[--5---5---5---5-5-5--5---5---5---5-5-5--10---10---10---10-10-10--3---3---3--------]
Ab[--3---3---3---3-3-3--3---3---3---3-3-3---7----7----7----7--7--7--3---3---3---3-3-3]
Eb[-----------------------------------------------------------------1---1---1---1-1-1]
                 . . .              . . .                  .  .  .              . . .
Gb[--7---7---7--------------------------------]
Db[--7---7---7---7-7-7--5---5---5----------3--]
Ab[--5---5---5---5-5-5--5---5---5---5-5-5--3--]
Eb[---------------------3---3---3---3-3-3--1--]
                 . . .              . . .
Chorus
Gtr. 1
Gb[--17------14------10---12---17--]
Db[---x-------x-------x----x----x--]
Ab[--15------12-------8---10---15--]
Eb[--------------------------------]

Gtr. 2
Gb[--5-------------------------5--]
Db[--5-------7-------3----5----5--]
Ab[--3-------7-------3----5----3--]
Eb[----------5-------1----3-------]

Verse 2 (same as verse 1)

Pre-Chorus
Gb[--------------(5)---7----------]
Db[--3---5---7---(5)---7---5---3--]
Ab[--3---5---7---(3)---5---5---3--]
Eb[--1---3---5-------------3---1--]

Chorus 2
Gtr. 1
Gb[--17------14------10---12---17------14------10---12---14---11---10---12--]
Db[---x-------x-------x----x----x-------x-------x----x----x----x----x----x--]
Ab[--15------12-------8---10---15------12-------8---10---12----9----8---10--]
Eb[-------------------------------------------------------------------------]

Gb[--5-------------------------5-------------------------------------------]
Db[--5-------7-------3----5----5-------7-------3----5----5----4----3----5--]
Ab[--3-------7-------3----5----3-------7-------3----5----5----5----3----5--]
Eb[----------5-------1----3------------5-------1----3----7----2----1----3--]

Bridge (I couldn’t hear any guitar on the first part, so here are the chords)
Am  F  C  G  (chords relative to Eb tuning)

Then
Gb[----------------------------------------------------------------]
Db[--7-7-7-7-7-7-7-7-7-7-7-7-7-7-7-7-------------------------8--8--]
Ab[--5-5-5-5-5-5-5-5-5-5-5-5-5-5-5-5-8-8-8-8-8-8-8-8-8-8-8-8-8--8--]
Eb[----------------------------------6-6-6-6-6-6-6-6-6-6-6-6-6--6--]
     . . . . . . . . . . . . . . . . . . . . . . . . . . . . 
Gb[-------------------------------------------------------------------]
Db[-------------------------------------------------------------------]
Ab[--3-3-3-3-3-3-3-3-3-3-3-3-3-3-3-3-5-5-5-5-5-5-5-5-5-5-5-5-5-5-5-5--]
Eb[--1-1-1-1-1-1-1-1-1-1-1-1-1-1-1-1-3-3-3-3-3-3-3-3-3-3-3-3-3-3-3-3--]
     . . . . . . . . . . . . . . . . . . . . . . . . . . . . . . . .
                                                    (gradually remove)
Chorus 3
Gtr. 1
Gb[--17------14------10---12---14---11---10---12--]
Db[---x-------x-------x----x----x----x----x----x--]
Ab[--15------12-------8---10---12----9----8---10--]
Eb[-----------------------------------------------]

Gtr. 2
Gb[--5-------------------------------------------]
Db[--5-------7-------3----5----5----4----3----5--]
Ab[--3-------7-------3----5----5----5----3----5--]
Eb[----------5-------1----3----7----2----1----3--]

Then, Gtr. 1
Gb[--17------14------10---12---17~~~~~--]
Db[---x-------x-------x----x----x~~~~~--]
Ab[--15------12-------8---10---15~~~~~--]
Eb[-------------------------------------]

Gtr. 2
Gb[--5-------------------------5~~~~~--]
Db[--5-------7-------3----5----5~~~~~--]
Ab[--3-------7-------3----5----3~~~~~--]
Eb[----------5-------1----3------------]

Comments about this tab

No comments/corrections found. Add your own

Complimentary Christian Ringtones
Dadamobile and CGR have teamed up to bring your favorite Christian artists right to your phone. Sign up today and get 10 complementary ringtones!
Tab Country
Did you know CGR has a sister site w/ country guitar tabs? Well we do! Its called Tab Country. It has a great archive with a lot of country tabs.
Rockin Tabs
Are you looking for a site that has rock guitar tabs? Then Rockintabs.com is the place for you. It is a budding site with many rock guitar tabs. Submit your tab today.
Tab Gallery
Tab Gallery has a compilation of christian, rock, and country tabs all in one place. Come visit us.