Guitar Tabs
song title    band name

Join Us Today!

Don't strum alone...
be a part of the largest online Christian music community. Browse thousands of guitar tabs and chat w/ musicians like yourself.


It's Free!

This tab has been rated a 5.00 out of 5 for accuracy. (1 vote)Sorry, but you must be logged in to rate this tab.
Click here to log-in, or you can click here to register.
(Registration is free)

All songs owned by corresponding publishing company. If you make copies of any song on this website, be sure to report your usage to CCLI.
Submitted by: saveferris1643

Fin by Anberlin
Cities

Chords:
C#m7 00664x
A2   02200x
E    002210
B    00442x

Listen for timing and rythym, it is easy.

Intro

Guitar 1
e----x---x---x---x---x------x---x-------------------
B----x---x---x---x---x------x---x-------------------
G----6---8---9---4---2------x---x--------------------
D----6---6---9---4---2------6---4-----------------
A----4---6---7---2---0------x---x------------------
E----x---x---x---x---x------4---2-------------------

Guitar 2
C#m7  A2  E  B


Verse
Guitar 2
C#m7  A2  E  B


Chorus
Guitar 1
e-----0-
B---4---
G-6-----
D-------
A-------
E------- x4

Then

Guitar 1 plays intro
Guitar 2 plays verse chords

Then
Verse

Chorus

Verse 

Chorus

Then Distortion
Guitar 1 plays intro x4
Guitar 2 plays verse x4

Then

Guitar 1
e-----------------------------------------9/12-14----
B----------------------------------------------------
G-6-8-9-11-9-8/6-6/4-----6-8-9-11-9-11-13------------
D----------------------------------------------------
A----------------------------------------------------
E----------------------------------------------------

Then

Guitar 2
C#m7 A2 E B x7

Then Guitar 2 keep playing same chords

Guitar 1
e-x---x---x--------------
B-x---x---x--------------
G-10--13--16--------------
D-x---x---x--------------
A-8---11--14-------------
E-x---x---x-------------

Then

Guitar 2
C#m7 A2 E B x3  
Then 
C#m7 hold

Then

Guitar 1
e---------------------------------------------
B---------------------------------------------
G---------------------------------------------
D--14h16p14--13h14p13-------------------------
A----------------------14h16p14---------------
E--------------------------------14h16p14--12-

Guitar 2
A2 A2 A2 A2 E

Second part of song:  It is just the same four chords that guitar 2 has been
playing the whole song, but with single strums and spaced farther apart.
I do not know the lead.

This song is easy to learn and really fun to play.

Have fun.

Comments about this tab

+SEAL+ - 2007-09-14

Awesome job, man. This song rocks, and so does this tab.


saveferris1643 - 2007-12-29

Thanks


Add a comment/correction

Complimentary Christian Ringtones
Dadamobile and CGR have teamed up to bring your favorite Christian artists right to your phone. Sign up today and get 10 complementary ringtones!
Tab Country
Did you know CGR has a sister site w/ country guitar tabs? Well we do! Its called Tab Country. It has a great archive with a lot of country tabs.
Rockin Tabs
Are you looking for a site that has rock guitar tabs? Then Rockintabs.com is the place for you. It is a budding site with many rock guitar tabs. Submit your tab today.
Tab Gallery
Tab Gallery has a compilation of christian, rock, and country tabs all in one place. Come visit us.