Guitar Tabs
song title    band name

Join Us Today!

Don't strum alone...
be a part of the largest online Christian music community. Browse thousands of guitar tabs and chat w/ musicians like yourself.


It's Free!

This tab has been rated a 4.67 out of 5 for accuracy. (3 votes)Sorry, but you must be logged in to rate this tab.
Click here to log-in, or you can click here to register.
(Registration is free)

All songs owned by corresponding publishing company. If you make copies of any song on this website, be sure to report your usage to CCLI.
Submitted by: skilletrocks

standard tuning EADGBe
intro
16th notes
Guitar 1 ( on the intro u can acctually play both guitar parts on one guitar)
D-4-4-4-4-4-4-4-4-------------------------------------------------
A-----------------2-2-2-2-2-2-2-2-4-4-4-4-4-4-4-4-4-4-4-4-4-4-4-4-x2
E-----------------------------------------------------------------
PM****************************************************************

Guitar 2

D-4-4-4-4-4-4-4-4-6-6-6-6-6-6-6-6-7-7-7-7-7-7-7-7-7-7-7-7-7-7-7-7-
A-----------------------------------------------------------------x2
E-----------------------------------------------------------------
PM****************************************************************

verse
right after he says "so let me get this strait"
    B    B    C#    C#         A   A    A    A      A                
e--0/0--0/0--0/0--0/0-0/0/0--0/0--0/0--0/0--0/0--0/0/0/0--
B--0/0--0/0--0/0--0/0-0/0/0--0/0--0/0--0/0--0/0--0/0/0/0--
G--4/4--4/4--6/6--6/6-6/6/6--2/2--2/2--2/2--2/2--2/2/2/2--x2
D--4/4--4/4--6/6--6/6-6/6/6--2/2--2/2--2/2--2/2--2/2/2/2--
A--2/2--2/2--4/4--4/4-4/4/4--0/0--0/0--0/0--0/0--0/0/0/0--
E--0/0--0/0--0/0--0/0-0/0/0--0/0--0/0--0/0--0/0--0/0/0/0--


e------0------0------0---0------
B----4------4------4-------0----x2
G---4-4----6-6----2-2--------2--

The PM part of the verse right here is just 
the first part of the verse Palm Muted (I know kinda confusing but
all it is is just the B C# and A chords again Palm Muted)

Chorus
Both Guitars 1 and 2
I'm not going to write out the rhythm on this one cuz
all it is is just a steady up and down struming. So these are the chords

   E     B     A       C# B                
e--0-----0-----0----0/0/0/0----
B--0-----0-----0----0/0/0/0----
G--9-----4-----2----6/6/6/4----x2
D--9-----4-----2----6/6/6/4----
A--7-----2-----0----4/4/4/2----
E--0-----0-----0----0/0/0/0----

well thats is for now. I don't have the bridge yet but I figured I would
at least put the rest of it up to give everyone somthing to mess around with
till I get the bridge so i hope u enjoy it. please rate and leave comments and
corrections!

Comments about this tab

Mr. Q - 2008-12-14

Great Tab!


Add a comment/correction

Complimentary Christian Ringtones
Dadamobile and CGR have teamed up to bring your favorite Christian artists right to your phone. Sign up today and get 10 complementary ringtones!
Tab Country
Did you know CGR has a sister site w/ country guitar tabs? Well we do! Its called Tab Country. It has a great archive with a lot of country tabs.
Rockin Tabs
Are you looking for a site that has rock guitar tabs? Then Rockintabs.com is the place for you. It is a budding site with many rock guitar tabs. Submit your tab today.
Tab Gallery
Tab Gallery has a compilation of christian, rock, and country tabs all in one place. Come visit us.