Guitar Tabs
song title    band name

Join Us Today!

Don't strum alone...
be a part of the largest online Christian music community. Browse thousands of guitar tabs and chat w/ musicians like yourself.


It's Free!

This tab has not yet been rated for accuracy.Sorry, but you must be logged in to rate this tab.
Click here to log-in, or you can click here to register.
(Registration is free)

All songs owned by corresponding publishing company. If you make copies of any song on this website, be sure to report your usage to CCLI.
Submitted by: hwknlsn09876543

Band: Hawk Nelson
Album: Smile, It's the End of the World
Song: It's Over
Tabber: hwknlsn09876543

This song is in Drop D (D, A, D, G, B, E)

* = palm mute (PM)
x = natural harmonics (fret mute)
h = hammer on
b = bend
sb = slight bend

I've broken select parts of the song into two guitars, shouldn't be too 
confusing.

Intro:
Gtr. 1:
|--------------------
|-0-2-4-5-4---4-5-4-2 
|-------------------- 
|-------------------- x8
|--------------------
|--------------------

Gtr. 2:
|--------------------------------
|--------------------------------
|-44444-44-44-4-6-44444-44-44-4-6
|-44444-44-44-4-6-22222-22-22-2-6 x4
|-22222-22-22-2-4-22222-22-22-2-4
|-----------------22222-22-22-2--

Verse 1:
|----------------------------------
|----------------------------------
|-------4--------------------6--7-6
|-4444444--------------------4--5-4
|-2222222--11111111-22222222-4--5-4
|----------11111111-22222222-4--5-4
PM******   ******** ******** 

|-----------------------------------
|-----------------------------------
|-44444444-33333333-4444444-6xx6xx6x
|-44444444-11111111-2222222-4xx4xx4x
|-22222222-11111111-2222222-4xx4xx4x
|----------11111111-2222222-4xx4xx4x

Pre-Chorus:
|----------------------------------
|----------------------------------
|-44-444-444-444-466-666-66--------
|-22-222-222-222-244-444-44--------
|-22-222-222-222-244-444-44--------
|-22-222-222-222-244-444-44--------

Chorus:
Gtr. 1:
|---------------------
|-0-2-4-5-4---4-5-4-2-
|---------------------
|--------------------- x8
|---------------------
|---------------------

Gtr. 2:
|--------------------------------------------------------------------
|--------------------------------------------------------------------
|-4444444444444444-4444444444444444-8888888888888888-6666666666666666
|-4444444444444444-2222222222222222-6666666666666666-4444444444444444 x2
|-2222222222222222-2222222222222222-6666666666666666-4444444444444444
|------------------2222222222222222-6666666666666666-4444444444444444

Verse 2:
|----------------------------------------------------------sb11-sb9-sb7-
|-----------------------------------------------------------------------
|-----------------------3----3h4-----3----3h4-----3----3h4--------------
|-(pause for bass)------------------------------------------------------
|-------------------222---22-----222---22-----222---22------------------
|-----------------------------------------------------------------------
PM                  ***   **     ***   **     ***   **

|-----------------------------------------------------------------------
|-----------------------------------------------------------------------
|-44444444-33333333-44444444-66666666-44444444-33333333-4444444-6xx6xx6x
|-44444444-11111111-22222222-44444444-44444444-11111111-2222222-4xx4xx4x
|-22222222-11111111-22222222-44444444-22222222-11111111-2222222-4xx4xx4x
|----------11111111-22222222-44444444----------11111111-2222222-4xx4xx4x

Pre-Chorus:
|----------------------------------
|----------------------------------
|-44-444-444-444-466-666-66--------
|-22-222-222-222-244-444-44--------
|-22-222-222-222-244-444-44--------
|-22-222-222-222-244-444-44--------

Chorus:
Gtr. 1:
|---------------------
|-0-2-4-5-4---4-5-4-2-
|---------------------
|--------------------- x8
|---------------------
|---------------------

Gtr. 2:
|--------------------------------------------------------------------
|--------------------------------------------------------------------
|-4444444444444444-4444444444444444-8888888888888888-6666666666666666
|-4444444444444444-2222222222222222-6666666666666666-4444444444444444 x2
|-2222222222222222-2222222222222222-6666666666666666-4444444444444444
|------------------2222222222222222-6666666666666666-4444444444444444

Intermission:
|----------------------------------------------------
|----------------------------------------------------
|-----3----3h4-----3----3h4-----3----3h4-----3----3h4
|-----4----4-4-----4----4-4-----4----4-4-----4----4-4
|----------------------------------------------------
|-222---22-----222---22-----444---44-----444---44----

Bridge:
|------------------------------------------------------
|--------------0-2-4-5-4---4-5-4-2--0-2-4-5-4---4-5-4-2
|------------------------------------------------------
|-(after bass)-----------------------------------------
|------------------------------------------------------
|------------------------------------------------------

Gtr. 1:
|--------------------
|-0-2-4-5-4---4-5-4-2 
|-------------------- 
|-------------------- x8
|--------------------
|--------------------

Gtr. 2:
|--------------------------------
|--------------------------------
|-44444-44-44-4-6-44444-44-44-4-6
|-44444-44-44-4-6-22222-22-22-2-6 x4
|-22222-22-22-2-4-22222-22-22-2-4
|-----------------22222-22-22-2--

Gtr. 1:
|-9-9-11--9-9-11--9-9-9-11-12-11-7--9-9-11--9-9-11-7---------------
|------------------------------------------------------------------
|------------------------------------------------------------------
|------------------------------------------------------------------
|------------------------------------------------------------------
|------------------------------------------------------------------

Gtr. 2:
|------------------------------------------------------------------
|------------------------------------------------------------------
|-33-333-333-333-344-444-444-444-433-333-333-333-3-----------------
|-11-111-111-111-122-222-222-222-211-111-111-111-1-5---------------
|-11-111-111-111-122-222-222-222-211-111-111-111-1-5---------------
|-11-111-111-111-122-222-222-222-211-111-111-111-1-5---------------

Piano Interlude: No Guitar

THE END rate and comment



Comments about this tab

No comments/corrections found. Add your own

Complimentary Christian Ringtones
Dadamobile and CGR have teamed up to bring your favorite Christian artists right to your phone. Sign up today and get 10 complementary ringtones!
Tab Country
Did you know CGR has a sister site w/ country guitar tabs? Well we do! Its called Tab Country. It has a great archive with a lot of country tabs.
Rockin Tabs
Are you looking for a site that has rock guitar tabs? Then Rockintabs.com is the place for you. It is a budding site with many rock guitar tabs. Submit your tab today.
Tab Gallery
Tab Gallery has a compilation of christian, rock, and country tabs all in one place. Come visit us.