Guitar Tabs
song title    band name

Join Us Today!

Don't strum alone...
be a part of the largest online Christian music community. Browse thousands of guitar tabs and chat w/ musicians like yourself.


It's Free!

This tab has not yet been rated for accuracy.Sorry, but you must be logged in to rate this tab.
Click here to log-in, or you can click here to register.
(Registration is free)

All songs owned by corresponding publishing company. If you make copies of any song on this website, be sure to report your usage to CCLI.
Submitted by: Switchfoot_

Daisy
Switchfoot
Nothing is Sound

Tunning: 3 steps down (C# F# B E Ab C#)
note on tunning: I know it's weird, but it's right!
For this song, there are a couple chords that I don't know what they are
Called, like Edim5. Make sure to read the chord list!

Chord list:
  E A B Edim5 B7 C  E*
|-0--------------2-------
|-0--------------0-------
|-1--------3---2-5--9----
|-2-7--9---2---1-5--9----
|-2-7--9---1---2-3--7----
|-0-5--7---0---0---------

Intro: Riff 1:

|--------------------|
|--------------------|
|------------1-1-----|
|-2--4-4-4-2-2-4-4-2-|
|-2--2-2-2-2-2-2-2-2-|
|-0--0-0-0-0-0-0-0-0-|

Verse: E Edim5 E A C

Riff 1

Verse

Chorus: E * A C E* Edim5 B7

Riff 1

Verse

Riff 1

Verse

Chorus (he picks the chorus chords)

Riff 1

Ending!!!!!!!!:

|---------------------------------
|---------------------------------
|-9-----9-----6-7-6-6-6-6-6-6-6-6
|-9-----9-----8-7-6-6-6-6-6-6-6-6
|-7-----7-----8-5-4-4-4-4-4-4-4-4-
|---0-0---0-0--------------------- x6

End On E*


Comments about this tab

No comments/corrections found. Add your own

Complimentary Christian Ringtones
Dadamobile and CGR have teamed up to bring your favorite Christian artists right to your phone. Sign up today and get 10 complementary ringtones!
Tab Country
Did you know CGR has a sister site w/ country guitar tabs? Well we do! Its called Tab Country. It has a great archive with a lot of country tabs.
Rockin Tabs
Are you looking for a site that has rock guitar tabs? Then Rockintabs.com is the place for you. It is a budding site with many rock guitar tabs. Submit your tab today.
Tab Gallery
Tab Gallery has a compilation of christian, rock, and country tabs all in one place. Come visit us.