Guitar Tabs
song title    band name

Join Us Today!

Don't strum alone...
be a part of the largest online Christian music community. Browse thousands of guitar tabs and chat w/ musicians like yourself.


It's Free!

This tab has not yet been rated for accuracy.Sorry, but you must be logged in to rate this tab.
Click here to log-in, or you can click here to register.
(Registration is free)

All songs owned by corresponding publishing company. If you make copies of any song on this website, be sure to report your usage to CCLI.
Submitted by: gsusguitar

From Christian Guitar Resources and my tabbing.  I put this song 
here to see how close I am to the real music.  Please critic.  Use the add 
message box below.

8/1/06-8/4/06
Band: Audio Adrenaline
Album: Underdog
Song: Hands and Feet

Intro: 
1st guitar: D,D/A,D/Em,D/G,Em,A                                                                                                                                                                                                                                                                                                                                                                                                                                                                                                                                    

2nd guitar:
E
A
D
G
B-----3------3-------3-------3--------------------------
E--2-------2-------2-------2---(hammer onto 3)-                       3xs

E------------------------------------------------------------------------
A-----------------------------------0------------------------------------
D--------------------------------------2-(slide to 5)-(slide to 4)-5-0---
G------------------------------------------------------------------------
B----------------3-2-----------------------------------------------------
E--2-0-------------------------------------------------------------------

E-
A-0-
D---2-(slide to 5)-(slide to 4)-5-0-------
G-
B-
E-


Verse: 1st guitar: Bm,G,Bm,G,D,G

2nd guitar:
E---------0-2-3-
A--2-------------
D-----------------
G-----------------
B-----0----------
E-----------------          3xs

E------------------------3-----5--------------0-----------5---------------3-
A------------------------2-------4---------------2----------4-------------2-
D--0--------------------0----------2---------------2---------2-----------0-
G----2------------------0-----------2----------------0--------2----------0-
B--------3--------------3-------------2--------------------------2--------3-
E------0----------------3---------------0--------------------------0------3-


Pre-chorus: 1st guitar: Am,G,Am

2nd guitar:
E---5-----------------0------------5--------------------3
A-----4-----------------2------------4------------------2
D-------2-----------------2------------2----------------0
G---------2-----------------0------------2--------------0
B-----------2-------------------------------2------------3
E-------------0--------------------------------0---------3

Chorus:
1st guitar: D,D/A,D/Em,D/Em, 2xs Em,A,D,A,G,Em,A

2nd guitar:
E
A
D
G
B----3----3----3---3-------------------------
E--2----2----2---2--(hammer onto 3)-                            8xs


2nd guitar chords: Em,A,D,A,G

E-----------------------------------------------------------------------
A-------------------------0---------------------------------------------
D-----------------------------2-(slide to 5)-(slide to 4)-5-0-----------
G-----------------------------------------------------------------------
B---------3-2------------------------------------------------------------
E---2-0------------------------------------------------------------------

E-
A-0------------------
D---2-(Slide to 5)----(slide to 4)-5-0--
G-
B-
E-




Verse

Chorus (connect to bridge right before the last phrase)

Bridge: A,G,E,G

1st part of Chorus to end                  
I would like to thank Christian Guitar Resources for providing the chords.
(Someone got the chords for this song correct.  I used those chords, but 
the tabbing was all done by me.  So, please tell me who you are, whoever 
did the chords.)

Comments about this tab

gsusguitar - 2008-06-13

I made a bad mistake. I actually repeated two parts that were not repeated.
Sorry.


Add a comment/correction

Complimentary Christian Ringtones
Dadamobile and CGR have teamed up to bring your favorite Christian artists right to your phone. Sign up today and get 10 complementary ringtones!
Tab Country
Did you know CGR has a sister site w/ country guitar tabs? Well we do! Its called Tab Country. It has a great archive with a lot of country tabs.
Rockin Tabs
Are you looking for a site that has rock guitar tabs? Then Rockintabs.com is the place for you. It is a budding site with many rock guitar tabs. Submit your tab today.
Tab Gallery
Tab Gallery has a compilation of christian, rock, and country tabs all in one place. Come visit us.