Guitar Tabs
song title    band name

Join Us Today!

Don't strum alone...
be a part of the largest online Christian music community. Browse thousands of guitar tabs and chat w/ musicians like yourself.


It's Free!

This tab has not yet been rated for accuracy.Sorry, but you must be logged in to rate this tab.
Click here to log-in, or you can click here to register.
(Registration is free)

All songs owned by corresponding publishing company. If you make copies of any song on this website, be sure to report your usage to CCLI.
Submitted by: Hawkless

Song:One Thing I Have Left
Artist:Hawk Nelson
Cd:Smile,it's the End of the World
Copyright:2006
Tabber-Hawkless
This is my first tab so if you think this needs improvement PLEASE tell me!
It is tuned in Drop C#  C#-G#-C#-F#-A#-D#


Verse 1:

D#------------------------------------
A#------------------------------------
F#--7----5----7/777-55-10-10-5-5---5-7
C#--7----5----7/777-55-10-10-5-5-3-5-7
G#--5----3----5/555-33-8---8-3-3-3-3-5
C#-------------------------------3----

Play one more time


Bridge:
D#----------------------------------------------------------------------
A#----------------------------------------------------------------------
F#-3-3-3-3-5-5-5-5-7-7-7-7-5-5-5-5-3-3-3-3-5-5-5-5-7-7-7-7-5-5-10-10-5-5---5-7
C#-3-3-3-3-5-5-5-5-7-7-7-7-5-5-5-5-3-3-3-3-5-5-5-5-7-7-7-7-5-5-10-10-5-5-3-5-7
G#-1-1-1-1-3-3-3-3-5-5-5-5-3-3-3-3-1-1-1-1-3-3-3-3-5-5-5-5-3-3-8--8--3-3-3-3-5
C#-----------------------------------------------------------------------3


Chorus:


D#--------------------------------------------------------------------------
A#--------------------------------------------------------------------------
F#-3-3-3-3-5-5-5-5-7-7-7-7-5-5-5-5-3-3-3-3-3-7-7-7-7-5-5-5-5-10-10-10-10-5-5
C#-3-3-3-3-5-5-5-5-7-7-7-7-5-5-5-5-3-3-3-3-3-7-7-7-7-5-5-5-5-10-10-10-10-5-5
G#-1-1-1-1-3-3-3-3-5-5-5-5-3-3-3-3-1-1-1-1-3-5-5-5-5-3-3-3-3-8--8--8--8--3-3
C#--------------------------------------------------------------------------
Play one more time

Play verse:

Play Bridge:

Play Chorus:


Guitar solo:

D#----------------------------------------------------------------------
A#----------------------------------------------------------------------
F#--777777377777377777377777----777777---777777---777777---7-7-------5-7
C#--------------------------3-3-777777-8-777777-8-777777-8-7-7-3-5-3-5-5
G#--------------------------3-3-555555-8-555555-8-555555-8-5-5-3-5-3-3-5
C#--------------------------3-3--------8--------8--------8-----3-5-3----


D#-----------------------------------------------------------------------
A#-----------------------------------------------------------------------
F#-7-77-77-------7-77-77------
C#-7-77-77-8-8-8-7-77-77-8-8-8
G#-5-55-55-8-8-8-5-55-55-8-8-8
C#---------8-8-8---------8-8-8

The rest I am not sure of

Comments about this tab

No comments/corrections found. Add your own

Complimentary Christian Ringtones
Dadamobile and CGR have teamed up to bring your favorite Christian artists right to your phone. Sign up today and get 10 complementary ringtones!
Tab Country
Did you know CGR has a sister site w/ country guitar tabs? Well we do! Its called Tab Country. It has a great archive with a lot of country tabs.
Rockin Tabs
Are you looking for a site that has rock guitar tabs? Then Rockintabs.com is the place for you. It is a budding site with many rock guitar tabs. Submit your tab today.
Tab Gallery
Tab Gallery has a compilation of christian, rock, and country tabs all in one place. Come visit us.