Guitar Tabs
song title    band name

Join Us Today!

Don't strum alone...
be a part of the largest online Christian music community. Browse thousands of guitar tabs and chat w/ musicians like yourself.


It's Free!

This tab has not yet been rated for accuracy.Sorry, but you must be logged in to rate this tab.
Click here to log-in, or you can click here to register.
(Registration is free)

All songs owned by corresponding publishing company. If you make copies of any song on this website, be sure to report your usage to CCLI.
Submitted by: WashburnGuitar9

I really dont have that much for this song but i have the intro and chorus

Band: switchfoot
Copywrite: 1999
Tabber: WashburnGuitar9
eimail: Twilightlink816
          standard tuning
intro

E[---------------------------------------]
B[---------------------------------------]
G[---------------------------------------]
D[-2-x-2-x-2-x--------2-x-5-5-x-3-3------]repeat as many times
A[-2-x-2-x-2-x-0-1-2--2-x-5-5-x-3-3------]as needed
E[-0-x-0-x-0-x--------0-x-5-5-x-3-3-5-6-7]

chorus

E[-----------------------------]
B[-----------------------------]
G[-----------------------------]
D[--------------5-5------------]
A[-7-6-7-3-3----3-3-------5-5-5]
E[-5-4-5-1-1--------------3-3-3]

thats all I know (which really is all you need to know)
but its 100% accurate and theres no sliding and all of that!
Please rate, and comment and persanol comments are for my e-maill 
address which is at the top....so enjoy and ROCK FOR GOD!!!

Comments about this tab

No comments/corrections found. Add your own

Complimentary Christian Ringtones
Dadamobile and CGR have teamed up to bring your favorite Christian artists right to your phone. Sign up today and get 10 complementary ringtones!
Tab Country
Did you know CGR has a sister site w/ country guitar tabs? Well we do! Its called Tab Country. It has a great archive with a lot of country tabs.
Rockin Tabs
Are you looking for a site that has rock guitar tabs? Then Rockintabs.com is the place for you. It is a budding site with many rock guitar tabs. Submit your tab today.
Tab Gallery
Tab Gallery has a compilation of christian, rock, and country tabs all in one place. Come visit us.