Guitar Tabs
song title    band name

Join Us Today!

Don't strum alone...
be a part of the largest online Christian music community. Browse thousands of guitar tabs and chat w/ musicians like yourself.


It's Free!

This tab has not yet been rated for accuracy.Sorry, but you must be logged in to rate this tab.
Click here to log-in, or you can click here to register.
(Registration is free)

All songs owned by corresponding publishing company. If you make copies of any song on this website, be sure to report your usage to CCLI.
Submitted by: card_shark

Water Under The Bridge
Jars of Clay
(written by Dan Haseltine, Charlie Lowell, Stephen Mason, Matt Odmark,
and Ron Aniello, 2006 Pogostick Music)

I got a hint as to the first line of the verse; after that, it wasn't hard
to figure out by ear. It doesn't match the CD recording exactly, so it is 
possible that my source was faulty. That being the case, I welcome and would
appreciate feedback and/or corrections. As is the case with most songs, it is 
not a good idea to attempt this song on guitar unless you have listened to
and are familiar with it. -card_shark

Introduction
 Bm D G D
 Bm D G

Verse
 Bm D G D
 Bm D G
 Bm D G Em

Chorus
 Asus A7
 G Bm D A
 Asus A7
 G Bm D

Introduction

Verse

Chorus

Bridge
:Bm D
 Bm D
 Bm D G:
 A A7 G D(Dsus-D)
 A A7 G A

Verse (instrumental/solo)

Bridge (first section)

Chorus (1 1/2 times, at the end hold the D)

Comments about this tab

card_shark - 2008-07-06

Here's the solo:

e---------------------------------5h7-5-7-s12-10-----5---------
B-------7-7h8p7-5---------7--7-8-----------------5-7---5h7p5---
G---5s7-----------7---5s7------------------------------------7-
D--------------------------------------------------------------
A-2-----------------2------------------------------------------
E--------------------------------------------------------------

e--------------------------
B-5h7p5---5-7-8-7-7h8-7-5--
G-------7------------------
D--------------------------
A--------------------------
E-------------------------------------------------------------


Add a comment/correction

Complimentary Christian Ringtones
Dadamobile and CGR have teamed up to bring your favorite Christian artists right to your phone. Sign up today and get 10 complementary ringtones!
Tab Country
Did you know CGR has a sister site w/ country guitar tabs? Well we do! Its called Tab Country. It has a great archive with a lot of country tabs.
Rockin Tabs
Are you looking for a site that has rock guitar tabs? Then Rockintabs.com is the place for you. It is a budding site with many rock guitar tabs. Submit your tab today.
Tab Gallery
Tab Gallery has a compilation of christian, rock, and country tabs all in one place. Come visit us.