Guitar Tabs
song title    band name

Join Us Today!

Don't strum alone...
be a part of the largest online Christian music community. Browse thousands of guitar tabs and chat w/ musicians like yourself.


It's Free!

This tab has been rated a 1.00 out of 5 for accuracy. (1 vote)Sorry, but you must be logged in to rate this tab.
Click here to log-in, or you can click here to register.
(Registration is free)

All songs owned by corresponding publishing company. If you make copies of any song on this website, be sure to report your usage to CCLI.
Submitted by: tjlee87

this tab only covers the intro and the 1st verse
  G       A       Bm            A/C#      G     A     D
E-------------------------------------5-5---3-----5-5-------0------
B-----3-------3-2-------3-3-2-----------------------------3---3----
G-------0-------------4-------2-----2---------0---------2----------
D-------------------4-------------2-------------------0----------0-
A---------0-------2-------------4---------------0------------------
E-3---------------------------------------3------------------------

and all you have to do after "..mercy over me" is hold on Bm chord on the 7th fret
(799777) and play
-----------7-----
-------7-----7---
-----7---7-----7-
---9-------------
-----------------
-7---------------

and all you have to on "..no heart could fully know" is hold on D chord and play
-2---0-------
---3---3---3-
---------2---
-------------
-------------
-------------

although they probably didnt play like this, it seems alot easier when u make tabs based on chords,

Comments about this tab

No comments/corrections found. Add your own

Complimentary Christian Ringtones
Dadamobile and CGR have teamed up to bring your favorite Christian artists right to your phone. Sign up today and get 10 complementary ringtones!
Tab Country
Did you know CGR has a sister site w/ country guitar tabs? Well we do! Its called Tab Country. It has a great archive with a lot of country tabs.
Rockin Tabs
Are you looking for a site that has rock guitar tabs? Then Rockintabs.com is the place for you. It is a budding site with many rock guitar tabs. Submit your tab today.
Tab Gallery
Tab Gallery has a compilation of christian, rock, and country tabs all in one place. Come visit us.