Guitar Tabs
song title    band name

Join Us Today!

Don't strum alone...
be a part of the largest online Christian music community. Browse thousands of guitar tabs and chat w/ musicians like yourself.


It's Free!

This tab has been rated a 5.00 out of 5 for accuracy. (1 vote)Sorry, but you must be logged in to rate this tab.
Click here to log-in, or you can click here to register.
(Registration is free)

All songs owned by corresponding publishing company. If you make copies of any song on this website, be sure to report your usage to CCLI.
Submitted by: sac346

Band: Kutless
Song: Winds of Change
Album: Hearts of the Innocent
Year: 2006
Record: BEC
Tuning: Drop C# (C#,G#,C#,F#,A#,D#)

Okay, so i know i have a tab out for this already, but i messed up
really bad on it (tuning was wrong, chorus wasn't all there, and i forgot
the second guitar). So i'm putting a better one out. lol hope it's easy
to read.

Guitar 1: (clean)
Intro/Verse 1:
D#[-----------------------------------]
A#[-----------------------------------]
F#[-------------------------------20--]
C#[---3--3-3-----------3--3-3--3----3-] (4X)
G#[-11-11-1---3--3-3-55-55-5-55-55----]
C#[---------33-33-3-------------------]

D#[-----------------------------------]
A#[-----------------------------------]
F#[-----------------------------------]
C#[---3--3-3-----------3--3-3--3--3-3-] 
G#[-11-11-1---3--3-3-55-55-5-55-55-5--]
C#[---------33-33-3-------------------]


Guitar 2: (Distortion and Delay)
D#[---------------------------]
A#[---------------------------]
F#[-3~-5~-5~-5~-10~-10~-8~-8~-]
C#[-3~-5~-5~-5~-10~-10~-8~-8~-]
G#[-1~-3~-3~-3~--8~--8~-6~-6~-]
C#[---------------------------]

Guitar's 1 and 2
Chorus: (Distortion)
D#[---------------------------------------------------------]
A#[---------------------------------------------------------]
F#[--------------------333-2/2/2/2-33-2/2----------55555555-]
C#[-555-7/7/7/7-55-7/7-333---------33-----33333333-55555555-] (2X)
G#[-555---------55-----111---------11-----33333333-33333333-]
C#[-555---------55------------------------33333333----------]

Guitar 1: (Clean)
Verse 2:
D#[-----------------------------------]
A#[-----------------------------------]
F#[-------------------------------20--]
C#[---3--3-3-----------3--3-3--3----3-] (4X)
G#[-11-11-1---3--3-3-55-55-5-55-55----]
C#[---------33-33-3-------------------]

D#[-----------------------------------]
A#[-----------------------------------]
F#[-----------------------------------]
C#[---3--3-3-----------3--3-3--3--3-3-] 
G#[-11-11-1---3--3-3-55-55-5-55-55-5--]
C#[---------33-33-3-------------------]

Guitar 2: (Delay and Distortion)
D#[------------------------------------------------------------]
A#[------------------------------------------------------------]
F#[-5~-5~-3~-5~-5~-5~-10~-5~-5~-5~-10~-10~-5~-5~-10~-10~-8~-8~-]
C#[-5~-5~-3~-5~-5~-5~-10~-5~-5~-5~-10~-10~-5~-5~-10~-10~-8~-8~-]
G#[-3~-3~-1~-3~-3~-3~--8~-3~-3~-3~--8~--8~-3~-3~--8~--8~-6~-6~-]
C#[------------------------------------------------------------]

Guitar's 1 and 2
Chorus: (Distortion)
D#[---------------------------------------------------------]
A#[---------------------------------------------------------]
F#[--------------------333-2/2/2/2-33-2/2----------55555555-]
C#[-555-7/7/7/7-55-7/7-333---------33-----33333333-55555555-] (4X)
G#[-555---------55-----111---------11-----33333333-33333333-]
C#[-555---------55------------------------33333333----------]

Guitar's 1 and 2: (Distortion)
Bridge:
D#[------------------------------------]
A#[------------------------------------]
F#[-------------------555###555#######-]
C#[-00000000-33333333-555###555#######-] (3X)
G#[-00000000-33333333-333###333#######-]
C#[-00000000-33333333------------------]

Guitar's 1 and 2
Chorus: (Distortion) {The first time they use a pedal to make it sound cool.}
D#[---------------------------------------------------------]
A#[---------------------------------------------------------]
F#[--------------------333-2/2/2/2-33-2/2----------55555555-]
C#[-555-7/7/7/7-55-7/7-333---------33-----33333333-55555555-] (4X)
G#[-555---------55-----111---------11-----33333333-33333333-]
C#[-555---------55------------------------33333333----------]

Tab Legend:
~: hold note
/: eighth note
#: scratch strings (most people use x, but i use x for deadening the strings)

That's it! Hope you find it better than my last tab. lol

Comments about this tab

No comments/corrections found. Add your own

Complimentary Christian Ringtones
Dadamobile and CGR have teamed up to bring your favorite Christian artists right to your phone. Sign up today and get 10 complementary ringtones!
Tab Country
Did you know CGR has a sister site w/ country guitar tabs? Well we do! Its called Tab Country. It has a great archive with a lot of country tabs.
Rockin Tabs
Are you looking for a site that has rock guitar tabs? Then Rockintabs.com is the place for you. It is a budding site with many rock guitar tabs. Submit your tab today.
Tab Gallery
Tab Gallery has a compilation of christian, rock, and country tabs all in one place. Come visit us.