Guitar Tabs
song title    band name

Join Us Today!

Don't strum alone...
be a part of the largest online Christian music community. Browse thousands of guitar tabs and chat w/ musicians like yourself.


It's Free!

This tab has not yet been rated for accuracy.Sorry, but you must be logged in to rate this tab.
Click here to log-in, or you can click here to register.
(Registration is free)

All songs owned by corresponding publishing company. If you make copies of any song on this website, be sure to report your usage to CCLI.
Submitted by: chevelleman

   Artist: Chevelle
   Song: Well Enough Alone
   Album:Vena Sera
And all that copyright stuff.
Hi everyone this is my first tab so don't be too brutal on the comments.
Oh and if u havent picked up a copy of this cd you should.
Key:
~: let ring
H: hammer on
P: Pull off



Tunning:
C#
G#
E
B
F#
B



  Intro: With lots of feed back and a little auto wah
C#---3--3----3----3--3--3----3----3
G#---6--6----6----6--6--6----6----6
E----5--5----5----5--5--5----5----5
B----3--3----3----3--3--3----3----3
F#---3--3----3----3--3--3----3----3
B----3--3----3----3--3--3----3----3

Verse:with slight distortion
C#-----------------------
G#-----------------------
E------------------------
B-------------3~~~~------ x4
F#--------1~~~-----------
B----0~~~~---------3~~~~~

Pre Chorus: All is palm muted and with distortion
C#------------------------------------------------
G#------------------------------------------------
E-------------------------------------------------
B----2-2-2-2-2-2-2-2-2-2-2-2-3-3-3-3-3-3-3-3-3----
F#---0-0-0-0-0-0-0-0-0-0-0-0-1-1-1-1-1-1-1-1-1-0-0
B-------------------------------------------------

C#--------------------------------------------------
G#--------------------------------------------------
E---------------------------------------------------
B----5-5-5-5-5-5-5-5-5-5-----7-7-7-7-7-7-7-7-7-7----
F#---3-3-3-3-3-3-3-3-3-3-0-0-5-5-5-5-5-5-5-5-5-5-0-0
B---------------------------------------------------

C#--------------------------------------------------
G#--------------------------------------------------
E---------------------------------------------------
B----3-3-3-3-3-3-3-3-3-3-----5-5-5-5-5-5-5-5-5-5----
F#---1-1-1-1-1-1-1-1-1-1-0-0-3-3-3-3-3-3-3-3-3-3-0-0
B---------------------------------------------------

C#--------------------------------------------------
G#--------------------------------------------------
E---------------------------------------------------
B----7-7-7-7-7-7-7-7-7-7-7-7-7-7-7-7-7-7-7-7-x-x-x-x
F#---5-5-5-5-5-5-5-5-5-5-5-5-5-5-5-5-5-5-5-5-x-x-x-x
B--------------------------------------------x-x-x-x

Chorus: Distortion
C#------------------------------------------------
G#------------------------------------------------
E-------------------------------------------------
B----3---3-3-3-3----3-3-3----3----3-3-3-3--3-3----
F#---3---3-3-3-3----3-3-3----3----3-3-3-3--3-3-0-0
B----3---3-3-3-3----3-3-3----3----3-3-3-3--3-3-0-0

C#---------------------------------------------------
G#---------------------------------------------------
E----3-----3-3--3-3----3-3-3---3---3-3--3-3---3-3----
B----3-----3-3--3-3----3-3-3---3---3-3--3-3---3-3---- x2
F#---1-----1-1--1-1----1-1-1---1---1-1--1-1---1-1-0-0
B-------------------------------------------------0-0


Intro
Verse
PRechorus
chorus x2

Bridge part one

C#---------------------------------0--------------------
G#---------------3----------------------------------3---
E----2-2--2---2h3---3---2-2--2-2h3----3--2-2--2-2h3----3
B----2-2--2-------------2-2--2-----------2-2--2---------
F#---0-0--0-------------0-0--0-----------0-0--0---------
B-------------------------------------------------------
    Fill 1
C#---------------
G#---3-3-3-3-3-3-
E----x-x-x-3-3-2-
B----0-0-0-0-0-0-
F#---------------
B----------------

Repeat bride part 1


Fill 2
C#-------------
G#--------------
E--------------
B----0--3-0----
F#-----1---3-1-
B--------------


bridge part 2 repeat twice

(C#-------------------------)      C#-----------------------------
(G#-------------------------)      G#-----------------------------
(E--------------------------)      E------------------------------
(B--------------------------) x3   B------------------------------
(F#-------------------------)      F#-----------------------------
(B----5h7--7--7-7-7-7-7-8-7-)      B----10--10-10-10-10-5--5-5-5-5


Bridge part 3 reapeat twice
 
C#---------------------------)     C#-------------------------------
G#---------------------------)     G#-------------------------------
E----------------------------)     E--------------------------------
B----5h7---7---7-7-7-7-7-8-7-) x3  B----10--10-10-10-10-5---5-5-5-5-
F#---5h7---7---7-7-7-7-7-8-7-)     F#---10--10-10-10-10-5---5-5-5-5-
B----5h7---7---7-7-7-7-7-8-7-)     B----10--10-10-10-10-5---5-5-5-5-

After all of bride

B----3~~~~
F#---3~~~~
B----3~~~~


Outro
C#----------
G#---3~~~~~~
E----2~~~~~~
B----0~~~~~~   with feed back and string scrachting
F#---0~~~~~~
B----0~~~~~~


Song order
INTRO
VERSE
PRE CHROUS
CHORUS
INTRO
VERSE
PRE CHORUS
BRIDGE PART 1
FILL 1
BRIDGE PART 1
FILL 2
BRIDGE PART 2
BRIDGE PART 3
CHORUS x2
OUTRO


Alright thats it peace out!

Comments about this tab

chevelleman - 2007-05-17

HI please comment Im really want to know how i am at tabing


Add a comment/correction

Complimentary Christian Ringtones
Dadamobile and CGR have teamed up to bring your favorite Christian artists right to your phone. Sign up today and get 10 complementary ringtones!
Tab Country
Did you know CGR has a sister site w/ country guitar tabs? Well we do! Its called Tab Country. It has a great archive with a lot of country tabs.
Rockin Tabs
Are you looking for a site that has rock guitar tabs? Then Rockintabs.com is the place for you. It is a budding site with many rock guitar tabs. Submit your tab today.
Tab Gallery
Tab Gallery has a compilation of christian, rock, and country tabs all in one place. Come visit us.