Guitar Tabs
song title    band name

Join Us Today!

Don't strum alone...
be a part of the largest online Christian music community. Browse thousands of guitar tabs and chat w/ musicians like yourself.


It's Free!

This tab has been rated a 5.00 out of 5 for accuracy. (1 vote)Sorry, but you must be logged in to rate this tab.
Click here to log-in, or you can click here to register.
(Registration is free)

All songs owned by corresponding publishing company. If you make copies of any song on this website, be sure to report your usage to CCLI.
Submitted by: nbfan

I tabbed this song before but it wasn`t very accurate. Here`s the accurate 
version. 

TAB IN CAPO 1

chords:
E 022100
Gadd6 355400
Badd11 x24400
Aadd9 577600

opening/verse riff
e----------------------------------------------
b----------------------------------------------
g----------------------------------------------
d----------------12-12-12-12-11-11-11-11-11-11-
a--7-77-99-99-11-0--0--0--0--0--0--0--0--0--0--
e--0-00-00-00-0-00-----------------------------

pre-chorus (no power can tame...):

e-------------------------------------------------------------------
b-------------------------------------------------------------------
g-------------------------------------------------------------------
d-------------------22-2-22-22-22-2-----------------22-2-22-22-22-2-
a--2-22-22-2-22-22--00-0-00-00-00-0-2-22-22-2-22-22-00-0-00-00-00-0-
e--3-33-33-3-33-33------------------3-33-33-3-33-33-----------------

chorus:
E Badd11 Gadd6 Aadd9 x2 E

that`s it...listen to the song for timing, it`s hard to do that with a tab, 
but it's easy once you get it figured out. The riff is kind of tricky because 
all the dots on the fretboard are in the wrong place as a result of using
the capo, but it's a fun song to play.

Comments about this tab

No comments/corrections found. Add your own

Complimentary Christian Ringtones
Dadamobile and CGR have teamed up to bring your favorite Christian artists right to your phone. Sign up today and get 10 complementary ringtones!
Tab Country
Did you know CGR has a sister site w/ country guitar tabs? Well we do! Its called Tab Country. It has a great archive with a lot of country tabs.
Rockin Tabs
Are you looking for a site that has rock guitar tabs? Then Rockintabs.com is the place for you. It is a budding site with many rock guitar tabs. Submit your tab today.
Tab Gallery
Tab Gallery has a compilation of christian, rock, and country tabs all in one place. Come visit us.