Guitar Tabs
song title    band name

Join Us Today!

Don't strum alone...
be a part of the largest online Christian music community. Browse thousands of guitar tabs and chat w/ musicians like yourself.


It's Free!

This tab has been rated a 5.00 out of 5 for accuracy. (1 vote)Sorry, but you must be logged in to rate this tab.
Click here to log-in, or you can click here to register.
(Registration is free)

All songs owned by corresponding publishing company. If you make copies of any song on this website, be sure to report your usage to CCLI.
Submitted by: skilletrocks

it's in drop D
\= slide down
/=slide up
intro/chorus (distortion) 2 guitars arranged for one
E-------------------------------------------------
B-------------------------------------------------
G-11-------9-------12-----9----9/11-----9-----7--7777---------
D--9-------7-------10-----7----7/9------7-----5--5555---------x2
A--9-------7-------10-----7----7/9------7-----5--5555---------
D--9-------7-------10-----7----7/9------7-----5--5555---------
                                                 P.M.
               the slide right here is just a really fast one

verse
Guitar 1 (clean)
G-14--13--11--x10 (just play it over and over again)

Guitar 2  (clean)
This part is played real softly behind guitar 1
e----7--7--7-7--7--7--10-9---
b--10-10--9-9--7--7---------- repeat as needed

chorus is the same as the intro.

post chorus
-9/11-9/11-9/11--11\x---------
-7/9--7/9--7/9----9\x---------
-7/9--7/9--7/9----9\x---------
-7/9--7/9--7/9----9\x---------

Bridge (sorry nothing yet)



well thats it I'll post the bridge later.
please rate and leave comments and corrections cuz this is my first tab.


        






 

Comments about this tab

No comments/corrections found. Add your own

Complimentary Christian Ringtones
Dadamobile and CGR have teamed up to bring your favorite Christian artists right to your phone. Sign up today and get 10 complementary ringtones!
Tab Country
Did you know CGR has a sister site w/ country guitar tabs? Well we do! Its called Tab Country. It has a great archive with a lot of country tabs.
Rockin Tabs
Are you looking for a site that has rock guitar tabs? Then Rockintabs.com is the place for you. It is a budding site with many rock guitar tabs. Submit your tab today.
Tab Gallery
Tab Gallery has a compilation of christian, rock, and country tabs all in one place. Come visit us.