Guitar Tabs
song title    band name

Join Us Today!

Don't strum alone...
be a part of the largest online Christian music community. Browse thousands of guitar tabs and chat w/ musicians like yourself.


It's Free!

This tab has been rated a 3.00 out of 5 for accuracy. (1 vote)Sorry, but you must be logged in to rate this tab.
Click here to log-in, or you can click here to register.
(Registration is free)

All songs owned by corresponding publishing company. If you make copies of any song on this website, be sure to report your usage to CCLI.
Tabbed by Mike B. gonzo6@juno.com
I'll be updating this song soon (as of 4/24/99)
 
Legend
------
h = hammer-on
p = pull-off
b = bend
r = bend release
/ = slide up/down
<5> = natural harmonic
[5] = artifical harmonic
~ = vibrato
tr = trill
 

" TIME " by Phil Keaggy


INTRO
E-||-------------|--------------|----------------------------------||-
B-||*------------|--------------|---------------------------------*||-
G-||-------------|--------------|---5-----4------------------------||-
D-||---7--5--7-7-|--5h7p5---5-7-|-7---7-----5------7-4----5-----5--||-
A-||*------------|--------7-----|-------7-----7--5------5---7-----*||-
E-||-------------|--------------|-----------------------------7----||-


Main Riff #1
E-||-------------------------------------||-
B-||*-----------------------------------*||-
G-||---5-----4---------------------------||-
D ||-7---7-----5-------7--4----5------5--||-
A-||*-------7-----7--5------5----7------*||-
E-||-------------------------------7-----||-

Verse 1:
                   Am              G/A     Am
        Well He hasn't always---- been around. (riff #1)
                           Am       G/A    Am
        And he won't always be.            (riff #1)
                   Dm                           Em
        But he's on the move at this moment, 
                        F           G           E/G#      Am
        measuring life for you and me           (Intro riff)

Verse 2:
           Am              G/A                                       Am  G/A    Am
        I fear we all----- submit to him (riff #1) exsisting anx----ouisly     (riff #1)
     Dm     Em               F                    G          E/G#
 No one is able to turn him off except the Lord who holds the key (Intro riff)

Pre-Chorus:

When the Lord stops it ,that'll be it. Too late for apologies

Too late to forgive your brother, too late to get on your knees.

When the Lord stops him, too late to help the needy. Worst of all, too
late to turn,

You must face eternity.

Chorus:

His name is time, and he's coming to an end, his name is time, where
will you be my friend.

Comments about this tab

Gtr4daKING - 2006-09-21

this is a pretty good version, not too many out though.


Add a comment/correction

Complimentary Christian Ringtones
Dadamobile and CGR have teamed up to bring your favorite Christian artists right to your phone. Sign up today and get 10 complementary ringtones!
Tab Country
Did you know CGR has a sister site w/ country guitar tabs? Well we do! Its called Tab Country. It has a great archive with a lot of country tabs.
Rockin Tabs
Are you looking for a site that has rock guitar tabs? Then Rockintabs.com is the place for you. It is a budding site with many rock guitar tabs. Submit your tab today.
Tab Gallery
Tab Gallery has a compilation of christian, rock, and country tabs all in one place. Come visit us.