Guitar Tabs
song title    band name

Join Us Today!

Don't strum alone...
be a part of the largest online Christian music community. Browse thousands of guitar tabs and chat w/ musicians like yourself.


It's Free!

This tab has not yet been rated for accuracy.Sorry, but you must be logged in to rate this tab.
Click here to log-in, or you can click here to register.
(Registration is free)

All songs owned by corresponding publishing company. If you make copies of any song on this website, be sure to report your usage to CCLI.
Submitted by: simplycomplex

Fourteen- Hawk Nelson; 
Smile, Its the End of the World


Tabbed by: Simplycomplex

Hey, this is the way I play this song. They recorded it on the piano,
minus the solo, but i think it sounds really cool on the guitar like this.
Comment and tell me what you think if you want. I think I might have
missed a note or two on the solo.


    Em     C     D     G     Em7     C2
E||-0------0-----2-----3-----(3)0---(3)0---||
B||-0------1-----3----(3)0----3------3-----||
G||-0------0-----2-----0------0------0-----||
D||-2------2-----0-----0------2------2-----||
A||-2------3-----------2------2------3-----||
E||-0-----(3)0---------3------0------0-----||

*The numbers in parenthesis are optional, theyre what I play.
 The actual, theory correct, fret number is beside it. They just
 play transitions easier and give the chord a little more character.
 Its up to you guys if you want to use them or not.*

*The Em7 and Em are interchangeable, as are the C and C2, they just 
 make it sound a little different and easier to play.*

Intro
Em C Em D

(Ohs)
Em C Em D 2x

Verse 1
G D Em7 C2 2x

(Ohs)
Em C Em D 2x

Verse 2
G D Em7 C2 2x

 (Ohs)
Em C Em D 2x


Solo

E||-7-7-7-7-8-7---------10-8-7-5---------5-7-------------||
B||-------------7-7-7-7----------8-8-8-8-----5-5-5-5-7-8-||
G||------------------------------------------------------||
D||------------------------------------------------------||  REPEAT
A||------------------------------------------------------||  SEVERAL
E||------------------------------------------------------||  TIMES

(Woahs)
G D Em7 C2 2x

(Ohs)
Em C Em D (repeat several times)

Fade out

Comments about this tab

No comments/corrections found. Add your own

Complimentary Christian Ringtones
Dadamobile and CGR have teamed up to bring your favorite Christian artists right to your phone. Sign up today and get 10 complementary ringtones!
Tab Country
Did you know CGR has a sister site w/ country guitar tabs? Well we do! Its called Tab Country. It has a great archive with a lot of country tabs.
Rockin Tabs
Are you looking for a site that has rock guitar tabs? Then Rockintabs.com is the place for you. It is a budding site with many rock guitar tabs. Submit your tab today.
Tab Gallery
Tab Gallery has a compilation of christian, rock, and country tabs all in one place. Come visit us.