Guitar Tabs
song title    band name

Join Us Today!

Don't strum alone...
be a part of the largest online Christian music community. Browse thousands of guitar tabs and chat w/ musicians like yourself.


It's Free!

This tab has not yet been rated for accuracy.Sorry, but you must be logged in to rate this tab.
Click here to log-in, or you can click here to register.
(Registration is free)

All songs owned by corresponding publishing company. If you make copies of any song on this website, be sure to report your usage to CCLI.
Submitted by: djkamilo

Solid Rock
Delirious
Guitar Tab

I haven’t found a single tab for this song online so I decided to make 
one myself.
This tab is based on the CD from the concert in Willow Creek, Chicago
Any corrections you can e-mail me at djkamilo@hotmail.com.
Enjoy!

Stu G with only one guitar plays this line below and loops it with a 
special pedal all throughout the song

Intro:

Riff A:(Loops throughout the whole song)

D|-------------------------|------------------------|
A|----7--5--7~~-7---5------|----7--5--7~~-7---5-----|
E|-0--------------7---5\3--|-0--------------7---5\3-|


Verse: (distortion)
Riff B:

There’s a rock that doesn’t move…
  Em                        D
B|-------------------------|------------------------|
G|-12-12-12-12-12-12-12-12:|11—11-11-11-11-11-11-11:|
D|-14-14-14-14-14-14-14-14:|12-12-12-12-12-12-12-12:|
A|-------------------------|------------------------|
E|-------------------------|------------------------|

Even though the waves come crashing cown…..
  A                         C
B|-------------------------|------------------------|
G|-6-6-6-6-6-6-6-6-6-6-6-6-|5-5-5-5-5-5-5-5-5-5-5-5-|
D|-7-7-7-7-7-7-7-7-7-7-7-7-|7-7-7-7-7-7-7-7-7-7-7-7-|
A|-------------------------|------------------------|
E|-------------------------|------------------------|


Pre-Chorus:
There’s a wave that’s coming near...
  Em                        F#m
B|-------------------------|------------------------|
G|-12-12—12-12-12-12-12-12-|14-14-14-14-14-14-14-14-|
D|-14-14-14-14-14-14-14-14-|16-16-16-16-16-16-16-16-|
A|-------------------------|------------------------|
E|-------------------------|------------------------|

It will make or break us, rearrange us…
  G                         A  
B|-------------------------|------------------------|
G|-16-16—16-16-16-16-16-16-|18-18-18-18-18-18-18-18-|
D|-17-17-17-17-17-17-17-17-|19-19-19-19-19-19-19-19-|
A|-------------------------|------------------------|
E|-------------------------|------------------------|

Chorus: (Strumming is optional)
   On Christ the solid rock we will stand…
  E                         A
B|-9—-9~~~~~~~~~~~---------|-10~~~~~~~~~~~----------|
G|-9--9~~~~~~~~~~~---------|-9~~~~~~~~~~~-----------|
D|-9--9~~~~~~~~~~~---------|-7~~~~~~~~~~~-----------|
A|-7--7~~~~~~~~~~~---------|-7~~~~~~~~~~~-----------|
E|-------------------------|------------------------|

   All other ground is sinking sand…
  D                         A
B|-7—-7~~~~~~~~~~~---------|(10)~~~~~~~~~~----------|
G|-7--7~~~~~~~~~~~---------|-9~~~~~~~~~~~-----------|
D|-7--7~~~~~~~~~~~---------|-7~~~~~~~~~~~-----------|
A|-5--5~~~~~~~~~~~---------|-7~~~~~~~~~~~-----------|
E|-------------------------|------------------------|
That’s the main song. There’s some fillings that Stu does in between the 
verses and the part where Martin raps, but I’ve decided to let you figure 
does part yourself.

Written by Delirious? ©2005 Curious? Music UK


Comments about this tab

No comments/corrections found. Add your own

Complimentary Christian Ringtones
Dadamobile and CGR have teamed up to bring your favorite Christian artists right to your phone. Sign up today and get 10 complementary ringtones!
Tab Country
Did you know CGR has a sister site w/ country guitar tabs? Well we do! Its called Tab Country. It has a great archive with a lot of country tabs.
Rockin Tabs
Are you looking for a site that has rock guitar tabs? Then Rockintabs.com is the place for you. It is a budding site with many rock guitar tabs. Submit your tab today.
Tab Gallery
Tab Gallery has a compilation of christian, rock, and country tabs all in one place. Come visit us.