Guitar Tabs
song title    band name

Join Us Today!

Don't strum alone...
be a part of the largest online Christian music community. Browse thousands of guitar tabs and chat w/ musicians like yourself.


It's Free!

This tab has not yet been rated for accuracy.Sorry, but you must be logged in to rate this tab.
Click here to log-in, or you can click here to register.
(Registration is free)

All songs owned by corresponding publishing company. If you make copies of any song on this website, be sure to report your usage to CCLI.
Submitted by: KrashOmnis

All For You - By Jonah33
From their Self-Titled album
Ardent Records

I thought I would try to tab this for guitar as well. This was done somewhat
quickly so dont be afraid to comment about the need for any corrections.

Tuning - D A D G B E (Drop D)


Drop D is the practice of tuning the E string down to the note D. This is 
mainly for guitars (in this case) as tuning to Drop D for a guitar makes power 
cords straight across the fret board on the same fret.

Example:
Standard tuning power chord
G|---|
D|-3-|
A|-3-|
E|-1-|

Drop D tuning Power cord (same chord)
G|---|
D|-3-|
A|-3-|
D|-3-|

There are two guitar parts, and they were kinda tough to pick apart. One guitar
has heavy distortion, and one has a bit lighter distortion with heavy Wah.
I'm not sure if any other effects are used.

o - open wah
+ - closed wah
~ - let ring

The introduction is the bass alone with some breathing/steam/static sound.
The steam/static little thing happens on the first beat of every measure in
some places. I dont really have any idea on emulating this unless you patch
it on a keyboard or something if you can do that. The breathing sound does
not follow time that well its just regular breathing with a load of treble
and definately some chorus effect.

Its important to note that while two guitars certainly sound awesome, it
is not entirely necessary. I know that some of you look at these tabs for
yourself, but some look at them to prepare for performances. I did this because
I'm playing this at a worship concert and I thought perhaps others would
benefit from this too. So if you only have one guitar, no worries, it still
sounds great, just follow the gtr 1 part.

To meet the space requirements that some sites have Ill be using these symbols

|---|
|---|
|-%-|
|-0-|
|-0-|
|-0-|

This means to strum the entire measure as 8th notes on that note.




(0:00)
Introduction (Bass Only, Vocals in 2nd time)

straight 8ths
G||------------------|-----------------|-----------------|-----------------|
D||o-----------------|-----------------|-----------------|-----------------|
A||o-----------------|-1-1-1-1-1-1-1-1-|-----------------|-----------------|
D||--0-0-0-0-0-0-0-0-|-----------------|-3-3-3-3-3-3-3-3-|-2-2-2-2-2-2-2-2-|


                                                       1,2,3.            
                                                      =================] 
-----------------|-----------------|-----------------|-----------------||
-----------------|-----------------|-----------------|----------------o||
-----------------|-1-1-1-1-1-1-1-1-|-----------------|----------------o||
-0-0-0-0-0-0-0-0-|-----------------|-3-3-3-3-3-3-3-3-|-5-5-5-6-6-5-5-3-||





(0:38)
Verse  (Guitars in)
Gtr 1
E||------------------|-----------------|-----------------|-----------------|
B||------------------|-----------------|-----------------|-----------------|
G||o-----------------|-----------------|-----------------|-----------------|
D||o-0--0----x-0-x-0-|-8--8----x-8-x-8-|-3--3----x-3-x-3-|-2--2----x-2-x-2-|
A||--0--0----x-0-x-0-|-8--8----x-8-x-8-|-3--3----x-3-x-3-|-2--2----x-2-x-2-|
D||--0--0----x-0-x-0-|-8--8----x-8-x-8-|-3--3----x-3-x-3-|-2--2----x-2-x-2-|

                                                      PM==============]
-----------------|-----------------|-----------------|------------------||
-----------------|-----------------|-----------------|------------------||
-----------------|-----------------|-----------------|-----------------o||
-0--0----x-0-x-0-|-8--8----x-8-x-8-|-3--3----x-3-x-3-|-5-5-5-6-6-5-5-3-o||
-0--0----x-0-x-0-|-8--8----x-8-x-8-|-3--3----x-3-x-3-|-5-5-5-6-6-5-5-3--||
-0--0----x-0-x-0-|-8--8----x-8-x-8-|-3--3----x-3-x-3-|-5-5-5-6-6-5-5-3--||


Gtr 2
Constant wah fluctuation, full open on every beat     
E||------------------|-----------------|-----------------|-----------------|
B||------------------|-----------------|-----------------|-----------------|
G||o-----------------|-----------------|-----------------|-----------------|
D||o-0--0----x-0-x-0-|-0--0----x-0-x-0-|-0--0----x-0-x-0-|-0--0----x-0-x-0-|
A||--0--0----x-0-x-0-|-0--0----x-0-x-0-|-0--0----x-0-x-0-|-0--0----x-0-x-0-|
D||--0--0----x-0-x-0-|-0--0----x-0-x-0-|-0--0----x-0-x-0-|-0--0----x-0-x-0-|

                                                      Full wah=========]
-----------------|-----------------|-----------------|------------------||
-----------------|-----------------|-----------------|------------------||
-----------------|-----------------|-----------------|-----------------o||
-0--0----x-0-x-0-|-0--0----x-0-x-0-|-0--0----x-0-x-0-|-5-5-5-6-6-5-5-3-o||
-0--0----x-0-x-0-|-0--0----x-0-x-0-|-0--0----x-0-x-0-|------------------||
-0--0----x-0-x-0-|-0--0----x-0-x-0-|-0--0----x-0-x-0-|------------------||
                                                       



(1:03)
Prechorus  
                                                                     
Gtr 1                                                                        x4
E||------------------|-----------------|-----------------|-----------------||
B||------------------|-----------------|-----------------|-----------------||  
G||o-----------------|-----------------|-----------------|----------------o||
D||o-0-0-0-----------|-6-6-6-----------|-5-5-5-----------|-3-3-3---1-1-1--o||
A||--0-0-0-----------|-6-6-6-----------|-5-5-5-----------|-3-3-3---1-1-1---||
D||--0-0-0-----------|-6-6-6-----------|-5-5-5-----------|-3-3-3---1-1-1---||


                                                           1,2.          
Gtr 2                                                     ================]
E||------------------|-----------------|-----------------|-----------------||
B||------------------|-----------------|-----------------|-----------------||  
G||o-----------------|-----------------|-----------------|----------------o||
D||o-0-0-0-----------|-6-6-6-----------|-5-5-5-----------|-3-3-3---1-1-1--o||
A||--0-0-0-----------|-6-6-6-----------|-5-5-5-----------|-3-3-3---1-1-1---||
D||--0-0-0-----------|-6-6-6-----------|-5-5-5-----------|-3-3-3---1-1-1---||


                                                           3,4.          
Gtr 2                                                     ================]
     o   +             o   +             o   +             o   +   o   +
E||------------------|-----------------|-----------------|-----------------||
B||------------------|-----------------|-----------------|-----------------||  
G||o-7-7-7-----------|-5-5-5-----------|-4-4-4-----------|-3-3-3---2-2-2--o||
D||o-----------------|-----------------|-----------------|----------------o||
A||--5-5-5-----------|-3-3-3-----------|-2-2-2-----------|-1-1-1---0-0-0---||
D||------------------|-----------------|-----------------|-----------------||


     



(1:27)
Chorus

Gtr 1 & 2                 1.
Straight 8ths             ===================================]
E|------------------|----|-----------------|------------------||
B|------------------|----|-----------------|------------------||
G|o-----------------|-%--|-----------------|-----------------o||
D|o-0-0-0-0-0-0-0-0-|-10-|-4-4-4-4-4-4-4-4-|-5-5-5-5-5-5-5-5-o||
A|--0-0-0-0-0-0-0-0-|-10-|-4-4-4-4-4-4-4-4-|-5-5-5-5-5-5-5-5--||
D|--0-0-0-0-0-0-0-0-|-10-|-4-4-4-4-4-4-4-4-|-5-5-5-5-5-5-5-5--||
  

 2.
==================================]
-----------------|-----------------|
-----------------|-----------------|
-----------------|-----------------|
-9-9-9-9-9-9-9-9-|-8-8-8-8-8-8-8-8-|
-9-9-9-9-9-9-9-9-|-8-8-8-8-8-8-8-8-|
-9-9-9-9-9-9-9-9-|-8-8-8-8-8-8-8-8-|



(1:40)
Interlude

Gtr 1 & 2
Grave (straight 8ths)
E||-----------------|-----------------|-----------------|-----------------||
B||-----------------|-----------------|-----------------|-----------------||
G||-----------------|-----------------|-----------------|-----------------||
D||-0-0-0-0-0-0-0-0-|-8-8-8-8-8-8-8-8-|-3-3-3-3-3-3-3-3-|-2-2-2-2-2-2-2-2-||
A||-0-0-0-0-0-0-0-0-|-8-8-8-8-8-8-8-8-|-3-3-3-3-3-3-3-3-|-2-2-2-2-2-2-2-2-||
D||-0-0-0-0-0-0-0-0-|-8-8-8-8-8-8-8-8-|-3-3-3-3-3-3-3-3-|-2-2-2-2-2-2-2-2-||
            [PM===]           [PM===]           [PM===]           [PM===]





(1:46)
Verse
 
Gtr 1 & 2                                                 1.        
Straight 8ths                                             =================]
E||------------------|-----------------|-----------------|------------------||
B||------------------|-----------------|-----------------|------------------||
G||o-----------------|-----------------|-----------------|-----------------o||
D||o-0-0-0-0-0-0-0-0-|-8-8-8-8-8-8-8-8-|-3-3-3-3-3-3-3-3-|-2-2-2-2-2-2-2-2-o||
A||--0-0-0-0-0-0-0-0-|-8-8-8-8-8-8-8-8-|-3-3-3-3-3-3-3-3-|-2-2-2-2-2-2-2-2--||
D||--0-0-0-0-0-0-0-0-|-8-8-8-8-8-8-8-8-|-3-3-3-3-3-3-3-3-|-2-2-2-2-2-2-2-2--||
    [PM==================================================================]

2.
================]
-----------------|
-----------------|
-----------------|
-5-5-5-6-6-5-5-3-|
-5-5-5-6-6-5-5-3-|
-5-5-5-6-6-5-5-3-|





(1:58)

Gtr 1
E||-----------------|-----------------|-----------------|-----------------|
B||-----------------|-----------------|-----------------|-----------------|
G||-----------------|-----------------|-----------------|-----------------|
D||-0--0----x-0-x-0-|-8--8----x-8-x-8-|-3--3----x-3-x-3-|-2--2----x-2-x-2-|
A||-0--0----x-0-x-0-|-8--8----x-8-x-8-|-3--3----x-3-x-3-|-2--2----x-2-x-2-|
D||-0--0----x-0-x-0-|-8--8----x-8-x-8-|-3--3----x-3-x-3-|-2--2----x-2-x-2-|

                                                      PM==============]
-----------------|-----------------|-----------------|-----------------||
-----------------|-----------------|-----------------|-----------------||
-----------------|-----------------|-----------------|-----------------||
-0--0----x-0-x-0-|-8--8----x-8-x-8-|-3--3----x-3-x-3-|-5-5-5-6-6-5-5-3-||
-0--0----x-0-x-0-|-8--8----x-8-x-8-|-3--3----x-3-x-3-|-5-5-5-6-6-5-5-3-||
-0--0----x-0-x-0-|-8--8----x-8-x-8-|-3--3----x-3-x-3-|-5-5-5-6-6-5-5-3-||


Gtr 2
Constant wah fluctuation, full open on every beat     
E||-----------------|-----------------|-----------------|-----------------|
B||-----------------|-----------------|-----------------|-----------------|
G||-----------------|-----------------|-----------------|-----------------|
D||-0--0----x-0-x-0-|-0--0----x-0-x-0-|-0--0----x-0-x-0-|-0--0----x-0-x-0-|
A||-0--0----x-0-x-0-|-0--0----x-0-x-0-|-0--0----x-0-x-0-|-0--0----x-0-x-0-|
D||-0--0----x-0-x-0-|-0--0----x-0-x-0-|-0--0----x-0-x-0-|-0--0----x-0-x-0-|

                                                      Full wah=========]
-----------------|-----------------|-----------------|-----------------||
-----------------|-----------------|-----------------|-----------------||
-----------------|-----------------|-----------------|-----------------||
-0--0----x-0-x-0-|-0--0----x-0-x-0-|-0--0----x-0-x-0-|-5-5-5-6-6-5-5-3-||
-0--0----x-0-x-0-|-0--0----x-0-x-0-|-0--0----x-0-x-0-|-----------------||
-0--0----x-0-x-0-|-0--0----x-0-x-0-|-0--0----x-0-x-0-|-----------------||





(2:11)
Prechorus  

Gtr 1                                                                        x4
E||------------------|-----------------|-----------------|-----------------||
B||------------------|-----------------|-----------------|-----------------||  
G||o-----------------|-----------------|-----------------|----------------o||
D||o-0-0-0-----------|-6-6-6-----------|-5-5-5-----------|-3-3-3---1-1-1--o||
A||--0-0-0-----------|-6-6-6-----------|-5-5-5-----------|-3-3-3---1-1-1---||
D||--0-0-0-----------|-6-6-6-----------|-5-5-5-----------|-3-3-3---1-1-1---||


                                                           1,2.          
Gtr 2                                                     ================]
E||------------------|-----------------|-----------------|-----------------||
B||------------------|-----------------|-----------------|-----------------||  
G||o-----------------|-----------------|-----------------|----------------o||
D||o-0-0-0-----------|-6-6-6-----------|-5-5-5-----------|-3-3-3---1-1-1--o||
A||--0-0-0-----------|-6-6-6-----------|-5-5-5-----------|-3-3-3---1-1-1---||
D||--0-0-0-----------|-6-6-6-----------|-5-5-5-----------|-3-3-3---1-1-1---||

                                                           1,2.          
Gtr 2                                                     ================]
     o   +             o   +             o   +             o   +   o   +
E||------------------|-----------------|-----------------|-----------------||
B||------------------|-----------------|-----------------|-----------------||  
G||o-7-7-7-----------|-5-5-5-----------|-4-4-4-----------|-3-3-3---2-2-2--o||
D||o-----------------|-----------------|-----------------|----------------o||
A||--5-5-5-----------|-3-3-3-----------|-2-2-2-----------|-1-1-1---0-0-0---||
D||------------------|-----------------|-----------------|-----------------||





(2:35)
Chorus

Gtr 1                     1,3.
Straight 8ths             ===================================]
E|------------------|----|-----------------|------------------||
B|------------------|----|-----------------|------------------||
G|o-----------------|-%--|-----------------|-----------------o||
D|o-0-0-0-0-0-0-0-0-|-10-|-4-4-4-4-4-4-4-4-|-5-5-5-5-5-5-5-5-o||
A|--0-0-0-0-0-0-0-0-|-10-|-4-4-4-4-4-4-4-4-|-5-5-5-5-5-5-5-5--||
D|--0-0-0-0-0-0-0-0-|-10-|-4-4-4-4-4-4-4-4-|-5-5-5-5-5-5-5-5--||
  

 2,4.
==================================]
-----------------|-----------------|
-----------------|-----------------|
-----------------|-----------------|
-9-9-9-9-9-9-9-9-|-8-8-8-8-8-8-8-8-|
-9-9-9-9-9-9-9-9-|-8-8-8-8-8-8-8-8-|
-9-9-9-9-9-9-9-9-|-8-8-8-8-8-8-8-8-|

Gtr 2                     1,3.
Straight 8ths             ===================================]
E|------------------|----|-----------------|------------------||
B|------------------|----|-----------------|------------------||
G|o-----------------|-%--|-----------------|-----------------o||
D|o-0-0-0-0-0-0-0-0-|-10-|-4-4-4-4-4-4-4-4-|-5-5-5-5-5-5-5-5-o||
A|--0-0-0-0-0-0-0-0-|-10-|-4-4-4-4-4-4-4-4-|-5-5-5-5-5-5-5-5--||
D|--0-0-0-0-0-0-0-0-|-10-|-4-4-4-4-4-4-4-4-|-5-5-5-5-5-5-5-5--||
  
 2.
===================================]
-----------------|------------------||
-----------------|------------------||
-----------------|-----------------o||
-9-9-9-9-9-9-9-9-|-8-8-8-8-8-8-8-8-o||
-9-9-9-9-9-9-9-9-|-8-8-8-8-8-8-8-8--||
-9-9-9-9-9-9-9-9-|-8-8-8-8-8-8-8-8--||

-----------------|-----------------|-----------------|-----------------||
-----------------|-----------------|-----------------|-----------------||
-7-7-7-7-7-7-7-7-|-5-5-5-5-5-5-5-5-|-4-4-4-4-4-4-4-4-|-3-3-3-3-3-3-3-3-||
-----------------|-----------------|-----------------|-----------------||
-5-5-5-5-5-5-5-5-|-3-3-3-3-3-3-3-3-|-2-2-2-2-2-2-2-2-|-1-1-1-1-1-1-1-1-||
-----------------|-----------------|-----------------|-----------------||




(3:00)
Interlude
Half-Time feel

Gtr 1
E||-----------------|-----------------|-----------------|---------------------|
B||-----------------|-----------------|-----------------|---------------------|
G||o----------------|-----------------|-----------------|---------------------|
D||o-8~-------------|-----------8/10--|-0~--------------|----------12\10-10\8-|
A||--8~-------------|-----------8/10--|-0~--------------|----------12\10-10\8-|
D||--8~-------------|-----------8/10--|-0~--------------|----------12\10-10\8-|
      
                                    1.
                                    ==================================]
-----------------|-----------------|-----------------|-----------------||
-----------------|-----------------|-----------------|-----------------||
-----------------|-----------------|-----------------|----------------o||
-8~--------------|-----------8/10--|-0-3-5-0-6-5-0-3-|-5-0-6-5-3-5-1~-o||
-8~--------------|-----------8/10--|-0-3-5-0-6-5-0-3-|-5-0-6-5-3-5-1~--||
-8~--------------|-----------8/10--|-0-3-5-0-6-5-0-3-|-5-0-6-5-3-5-1~--||
                                     [PM=========================] 

2.
==================================]
                                        x4
||------------------|-----------------||
||------------------|-----------------||
||o-----------------|----------------o||
||o-0-3-5-0-6-5-0-3-|-5-0-6-5-3-5-1~-o||
||--0-3-5-0-6-5-0-3-|-5-0-6-5-3-5-1~--||
||--0-3-5-0-6-5-0-3-|-5-0-6-5-3-5-1~--||
 [PM============================]



Gtr 2
Not sure about wah on this part
E||------------------|-----------------|-----------------|------------------|
B||------------------|-----------------|-----------------|------------------|
G||o-3~--------------|-----------3/5---|-7~--------------|----------7\5-5\3-|
D||o-3~--------------|-----------3/5---|-7~--------------|----------7\5-5\3-|
A||--1~--------------|-----------1/3---|-5~--------------|----------5\3-3\1-|
D||------------------|-----------------|-----------------|------------------|
      
                                    1.
                                    ==================================]
-----------------|-----------------|-----------------|-----------------||
-----------------|-----------------|-----------------|-----------------||
-3~--------------|-----------3/5---|-----------------|----------------o||
-3~--------------|-----------3/5---|-0-3-5-0-6-5-0-3-|-5-0-6-5-3-5-1~-o||
-1~--------------|-----------1/3---|-0-3-5-0-6-5-0-3-|-5-0-6-5-3-5-1~--||
-----------------|-----------------|-0-3-5-0-6-5-0-3-|-5-0-6-5-3-5-1~--||
                                     [PM=========================] 

2
==================================]
                                        x4
||------------------|-----------------||
||------------------|-----------------||
||o-----------------|----------------o||
||o-0-3-5-0-6-5-0-3-|-5-0-6-5-3-5-1~-o||
||--0-3-5-0-6-5-0-3-|-5-0-6-5-3-5-1~--||
||--0-3-5-0-6-5-0-3-|-5-0-6-5-3-5-1~--||
 [PM============================]






(3:34)
Chorus

Gtr 1                     1,3.
Straight 8ths             ===================================]
E|------------------|----|-----------------|------------------||
B|------------------|----|-----------------|------------------||
G|o-----------------|-%--|-----------------|-----------------o||
D|o-0-0-0-0-0-0-0-0-|-10-|-4-4-4-4-4-4-4-4-|-5-5-5-5-5-5-5-5-o||
A|--0-0-0-0-0-0-0-0-|-10-|-4-4-4-4-4-4-4-4-|-5-5-5-5-5-5-5-5--||
D|--0-0-0-0-0-0-0-0-|-10-|-4-4-4-4-4-4-4-4-|-5-5-5-5-5-5-5-5--||
  

 2,4.
==================================]
-----------------|-----------------|
-----------------|-----------------|
-----------------|-----------------|
-9-9-9-9-9-9-9-9-|-8-8-8-8-8-8-8-8-|
-9-9-9-9-9-9-9-9-|-8-8-8-8-8-8-8-8-|
-9-9-9-9-9-9-9-9-|-8-8-8-8-8-8-8-8-|

Gtr 2                     1,3.
Straight 8ths             ===================================]
E|------------------|----|-----------------|------------------||
B|------------------|----|-----------------|------------------||
G|o-----------------|-%--|-----------------|-----------------o||
D|o-0-0-0-0-0-0-0-0-|-10-|-4-4-4-4-4-4-4-4-|-5-5-5-5-5-5-5-5-o||
A|--0-0-0-0-0-0-0-0-|-10-|-4-4-4-4-4-4-4-4-|-5-5-5-5-5-5-5-5--||
D|--0-0-0-0-0-0-0-0-|-10-|-4-4-4-4-4-4-4-4-|-5-5-5-5-5-5-5-5--||
  
 2.
===================================]
-----------------|------------------||
-----------------|------------------||
-----------------|-----------------o||
-9-9-9-9-9-9-9-9-|-8-8-8-8-8-8-8-8-o||
-9-9-9-9-9-9-9-9-|-8-8-8-8-8-8-8-8--||
-9-9-9-9-9-9-9-9-|-8-8-8-8-8-8-8-8--||

-----------------|-----------------|-----------------|-----------------||
-----------------|-----------------|-----------------|-----------------||
-7-7-7-7-7-7-7-7-|-5-5-5-5-5-5-5-5-|-4-4-4-4-4-4-4-4-|-3-3-3-3-3-3-3-3-||
-----------------|-----------------|-----------------|-----------------||
-5-5-5-5-5-5-5-5-|-3-3-3-3-3-3-3-3-|-2-2-2-2-2-2-2-2-|-1-1-1-1-1-1-1-1-||
-----------------|-----------------|-----------------|-----------------||
 
 


(3:59)
Outro
Gtr 1 & 2                               x4
||------------------|-----------------||
||------------------|-----------------||
||o-----------------|----------------o||
||o-0-3-5-0-6-5-0-3-|-5-0-6-5-3-5-1~-o||
||--0-3-5-0-6-5-0-3-|-5-0-6-5-3-5-1~--||
||--0-3-5-0-6-5-0-3-|-5-0-6-5-3-5-1~--||


----|
----|
----|
-0~-|
-0~-|
-0~-|





Tabbed out all by ear in April of 2007
by KrashOmnis

Comments about this tab

ryanshanner - 2010-03-20

This tab is the better of the two for this song. Vince had me come try out for the band at Ardent studio in Memphis, this was one of the songs he wanted me to play.


Add a comment/correction

Complimentary Christian Ringtones
Dadamobile and CGR have teamed up to bring your favorite Christian artists right to your phone. Sign up today and get 10 complementary ringtones!
Tab Country
Did you know CGR has a sister site w/ country guitar tabs? Well we do! Its called Tab Country. It has a great archive with a lot of country tabs.
Rockin Tabs
Are you looking for a site that has rock guitar tabs? Then Rockintabs.com is the place for you. It is a budding site with many rock guitar tabs. Submit your tab today.
Tab Gallery
Tab Gallery has a compilation of christian, rock, and country tabs all in one place. Come visit us.