Guitar Tabs
song title    band name

Join Us Today!

Don't strum alone...
be a part of the largest online Christian music community. Browse thousands of guitar tabs and chat w/ musicians like yourself.


It's Free!

This tab has been rated a 5.00 out of 5 for accuracy. (1 vote)Sorry, but you must be logged in to rate this tab.
Click here to log-in, or you can click here to register.
(Registration is free)

All songs owned by corresponding publishing company. If you make copies of any song on this website, be sure to report your usage to CCLI.
Submitted by: sharrkmaster

Song Title: Mood Rings
Artist: Relient K
Album: Two Lefts Don't Make a Right... But Three Do

Great song by Relient K. I saw the other tabs on this site, and they just
didn't have the accuracy that I like, so here's my version. I'm also pretty
sure that I got the outro down. The other ones almost had it right,
but I think my version sounds right.
(Thanks to the other contributers for making it easier on my part.)
-Sharrk

 Verse 1 / Intro:
e--------------------------------------------------------7----7--------
B-----------------------------------------9----9-------7---------------
G---8----1----1---------4-------8----8----9----9-----------8-----------
D---9----2----2-------4-------9------9----6----6-----9-----------------
A---7---------0-----2-------6--------7---------0-----------------------
E----------------------------------------------------------------------

 Pre-chorus:                                  ***
e---------------------------------------------xxx
B---------------------------------------------xxx
G-----------6--66-----------------------------xxx  (2x)
D---4444444/6--66---6--66/9--9999999999999999-xxx
A---4444444/4--44---6--66/9--9999999999999999-xxx
E---2220222/--------4--44/7--7777777777777777-xxx
                                             *leave out first time
 Chorus:
e-----------------------------------------------
B-----------------------------------------------
G-------------------------99999999-88888888-----  (2x)
D---7-7--------9-9--------99999999-99999999-----
A---7-7--------9-9--------77777777-66666666-----
E---5-5--------7-7------------------------------ 

e-------------------------
B-------------------------
G-------------------------
D---77777777---99999999---
A---77777777---99999999---
E---55555555---77777777---

 Chorus Part 2
e-----------------------------------------------
B-----------------------------------------------
G---9999-9---------------9999-9-----------------  (2x)
D---9999-9---99/77/999---9999-9---99/77/999-----
A---7777-7---99/77/999---7777-7---99/77/999-----
E------------77/55/777------------77/55/777-----

 Verse 2:
(first time just bass plays. listen for when to come in)
e----------------------------------------------------------------------
B----------------------------------------------------------------------
G--9-------------------------------------------------------------------
D--9-(x16)-----6-----------7-----------9-------------------------------
A--7-----------7-(x16)-----7-(x16)-----9-(x16)-------------------------
E--------------4-----------5-----------7-------------------------------

 Pre-chorus:                                  ***
e---------------------------------------------xxx
B---------------------------------------------xxx
G-----------6--66-----------------------------xxx  (2x)
D---4444444/6--66---6--66/9--9999999999999999-xxx
A---4444444/4--44---6--66/9--9999999999999999-xxx
E---2220222/--------4--44/7--7777777777777777-xxx
                                             *leave out first time
 Chorus:
e-----------------------------------------------
B-----------------------------------------------
G-------------------------99999999-88888888-----  (2x)
D---7-7--------9-9--------99999999-99999999-----
A---7-7--------9-9--------77777777-66666666-----
E---5-5--------7-7------------------------------ 

e-------------------------
B-------------------------
G-------------------------
D---77777777---99999999---
A---77777777---99999999---
E---55555555---77777777---

 Chorus Part 2:
e-----------------------------------------------
B-----------------------------------------------
G---9999-9---------------9999-9-----------------  (2x)
D---9999-9---99/77/999---9999-9---99/77/999-----
A---7777-7---99/77/999---7777-7---99/77/999-----
E------------77/55/777------------77/55/777-----


 Bridge:
e---------xxxx-----------------------xxxx------------------
B---------xxxx-----------------------xxxx------------------
G---99----xxxx----------------99-----xxxx------------------ (x2)  
D---99-99-xxxx--77/1111/999---99--99-xxxx-77/1010101010----
A---77-99-xxxx--77/1111/999---77--99-xxxx-77/1010101010----
E------77-xxxx--55/-9-9/777-------77-xxxx-55/-8-8-8-8-8----


e----------------------------------------------------------
B----------------------------------------------------------
G---99------------------------99-----------------6--------- (x2)  
D---99-99-------77/1111/999---99--99----77777777-6--9----7~
A---77-99-------77/1111/999---77--99----77777777-4--9----7~
E------77-------55/-9-9/777-------77----55555555----7----5~
*PM*********************************************

 Verse 3:
e--------------------------------------------------------7----7-11-----
B-----------------------------------------9----9-------7---------------
G---8----1----1---------4-------8----8----9----9-----------8-------8---
D---9----2----2-------4-------9------9----6----6-----9-------------9---
A---7---------0-----2-------6--------7---------0-------------------7---
E----------------------------------------------------------------------

 Outro:
For the outro, I just like to hold down the chord formation
and finger-pick whatever sounds right. I'll write out the tab
since this is a tab, but you should be able to use your ears 
to figure out what to pick.
   E             E?*          A(1)         C
e|-----------------------------------------------------
B|--9------9-----7------7-----5------5-----5-----5----- 
G|.-----9----9--------8---8--------6---6-------5---5---
D|.-----------------9------------7-----------5---------
A|--7------------6-------------------------3-----------
E|----------------------------5------------------------
                                         1.             2.
                                         --------------|------|
   C#m          B            A(2)       |  C           | Am   |
e---------------------------------------|--------------|-0~---|
B--5-----5------4------4-----2------2---|--5-----5-----|-1~---|
G------6---6---------4---4--------2---2-|------5---5---|-2~--.|
D----6-------------4------------2-------|----5---------|-2~--.|
A--4------------2------------0----------|--3-----------|-0~---|
E---------------------------------------|--------------|------|
*don't know actual chord name                            *strum slowly

Comments about this tab

sharrkmaster - 2007-05-31

Hey guys, hope you enjoy the tab. I just noticed I forgot to take out the (2x) on the second part of the bridge. You're supposed to play the palm mute section only once. Thanks!


iced slurpee - 2007-08-26

noo only 1 vote on accuracy.... i guess ill just have 2 try it and vote... looks right tho...


Add a comment/correction

Complimentary Christian Ringtones
Dadamobile and CGR have teamed up to bring your favorite Christian artists right to your phone. Sign up today and get 10 complementary ringtones!
Tab Country
Did you know CGR has a sister site w/ country guitar tabs? Well we do! Its called Tab Country. It has a great archive with a lot of country tabs.
Rockin Tabs
Are you looking for a site that has rock guitar tabs? Then Rockintabs.com is the place for you. It is a budding site with many rock guitar tabs. Submit your tab today.
Tab Gallery
Tab Gallery has a compilation of christian, rock, and country tabs all in one place. Come visit us.