Guitar Tabs
song title    band name

Join Us Today!

Don't strum alone...
be a part of the largest online Christian music community. Browse thousands of guitar tabs and chat w/ musicians like yourself.


It's Free!

This tab has been rated a 4.50 out of 5 for accuracy. (2 votes)Sorry, but you must be logged in to rate this tab.
Click here to log-in, or you can click here to register.
(Registration is free)

All songs owned by corresponding publishing company. If you make copies of any song on this website, be sure to report your usage to CCLI.
Submitted by: sac346

Band: Falling Up
Song: Bittersweet
Album: Crashings
Record: BEC
Year: 2004
Tuning: Drop D (DADGBE)

Intro:
E[---------------------------------------------------------------]
B[---------------------------------------------------------------]
G[---------------------------------------------------------------]
D[-9009009090090090900900909009009090090090900900909009009090090-]
A[-9009009090090090900900909009009090090090900900909009009090090-]
D[-9009009090090090900900909009009090090090900900909009009090090-]
pm.................................

E[----------------------------------------------------------------]
B[----------------------------------------------------------------]
G[----------------------------------------------------------------]
D[-00909000-12111211-911-911-7-999-999-444-44444-7777777777777777-]
A[-00909000--9-9-9-9-9-9-9-9-7-777-777-222-22222-5555555555555555-]
D[-00909000--9-9-9-9-9-9-9-9-7-777-777-222-22222-5555555555555555-]

E[-----]
B[-----]
G[-----]
D[-3-2-]
A[-3-2-]
D[-3-2-]

Verse 1:
E[----------------------]
B[------8p7p0-----------]
G[----------------------]
D[---9--------99911-4-4-] (3X)
A[--7-7-------777-9-2-2-]
D[-7----------777-9-2-2-]
pm.....       ..... . . 

E[--------------------]
B[------8p7p0---------]
G[--------------------]
D[---9--------4-4-11x-]
A[--7-7-------2-2--9x-]
D[-7----------2-2--9x-]
pm.....       . .

E[----------------------]
B[------8p7p0-----------]
G[----------------------]
D[---9--------99911-4-4-] (3X)
A[--7-7-------777-9-2-2-]
D[-7----------777-9-2-2-]
pm.....       ..... . . 

E[-----------------------]
B[------8p7p0------------]
G[-----------------------]
D[---9--------4-4-11-11~-]
A[--7-7-------2-2--9--9~-]
D[-7----------2-2--9--9~-]
pm.....       . .        

Pre Chorus 1:
E[-------------------]
B[-------------------]
G[-------------------]
D[-77777777-99999999-]
A[-55555555-77777777-]
D[-55555555-77777777-]

Chorus:
E[----------------------------------------------------------------]
B[----------------------------------------------------------------]
G[----------------------------------------------------------------]
D[-00909000-12111211-911-911-7-999-999-444-44444-7777777777777777-] (2x)
A[-00909000--9-9-9-9-9-9-9-9-7-777-777-222-22222-5555555555555555-]
D[-00909000--9-9-9-9-9-9-9-9-7-777-777-222-22222-5555555555555555-]

Verse 2:
E[----------------------]
B[------8p7p0-----------]
G[----------------------]
D[---9--------99911-4-4-] (2X)
A[--7-7-------777-9-2-2-]
D[-7----------777-9-2-2-]
pm.....       ..... . . 

E[-------------]
B[------8p7p0--]
G[-------------]
D[---9---------] 
A[--7-7--------]
D[-7-----------]
pm.....             

Then...
E[-------------]
B[-------8p7p0-]
G[-------------]
D[-4-2-9-------] (4X)
A[-2-2-7-------]
D[-2-2-7-------]

Pre Chorus 2:
E[-----------------------]
B[-----------------------]
G[-----------------------]
D[-4-2-77777777-99999999-]
A[-2-2-55555555-77777777-]
D[-2-2-55555555-77777777-]

Chorus:
E[----------------------------------------------------------------]
B[----------------------------------------------------------------]
G[----------------------------------------------------------------]
D[-00909000-12111211-911-911-7-999-999-444-44444-7777777777777777-] (2x)
A[-00909000--9-9-9-9-9-9-9-9-7-777-777-222-22222-5555555555555555-]
D[-00909000--9-9-9-9-9-9-9-9-7-777-777-222-22222-5555555555555555-]

Bridge:
E[------------------------------------------------------]
B[------------------------------------------------------]
G[------------------------------------------------------]
D[-9121291212912912129121291291212912129129121291212912-]
A[-9121291212912912129121291291212912129129121291212912-]
D[-9121291212912912129121291291212912129129121291212912-]

E[-------------------------------]
B[-------------------------------]
G[-------------------------------]
D[-90090090900900909009009090090-]
A[-90090090900900909009009090090-]
D[-90090090900900909009009090090-]

Then accoustic plays bar-chords G//////// A//////// (the slashes are for how 
many times you play the chords)

Bar-chord G:  Bar-chord A:
E[-3-]        E[-5-]
B[-6-]        B[-8-]
G[-5-]        G[-7-]
D[-3-]        D[-5-]
A[-3-]        A[-5-]
D[-x-]        D[-x-]

Then... (back to distortion)
E[-------------------]
B[-------------------]
G[-------------------]
D[-77777777-99999999-] (3X)
A[-55555555-77777777-]
D[-55555555-77777777-]

Then...
E[-----------------------]
B[-----------------------]
G[---------10---------11-]
D[-4h7/4h6--x-4h7/4h6--x-] (8X)
A[-4h7/4h6--8-4h7/4h6--9-]
D[-4h7/4h6----4h7/4h6----]

Then...
E[----]
B[----]
G[----]
D[-00-]
A[-00-]
D[-00-]
pm....

Chorus:
E[----------------------------------------------------------------]
B[----------------------------------------------------------------]
G[----------------------------------------------------------------]
D[-00909000-12111211-911-911-7-999-999-444-44444-7777777777777777-] (2x)
A[-00909000--9-9-9-9-9-9-9-9-7-777-777-222-22222-5555555555555555-]
D[-00909000--9-9-9-9-9-9-9-9-7-777-777-222-22222-5555555555555555-]

TAB legend:
p: pull off
h: hammer on
/: eighth note
x: deaden strings
pm...: palm mute
~: hold note

Well, that's it. I'm 100% positive that the tab is at least 99.9% correct.
It's hard at first, but once you get the hang of it, it's a lot of fun to
play. The hardest part of the song by far is the cool part of the bridge. The
only thing i'm not 100% sure about is if i got the right fingering for the
bar-chords. You can play regular G and A if they don't sound right to you.

Comments about this tab

No comments/corrections found. Add your own

Complimentary Christian Ringtones
Dadamobile and CGR have teamed up to bring your favorite Christian artists right to your phone. Sign up today and get 10 complementary ringtones!
Tab Country
Did you know CGR has a sister site w/ country guitar tabs? Well we do! Its called Tab Country. It has a great archive with a lot of country tabs.
Rockin Tabs
Are you looking for a site that has rock guitar tabs? Then Rockintabs.com is the place for you. It is a budding site with many rock guitar tabs. Submit your tab today.
Tab Gallery
Tab Gallery has a compilation of christian, rock, and country tabs all in one place. Come visit us.