Guitar Tabs
song title    band name

Join Us Today!

Don't strum alone...
be a part of the largest online Christian music community. Browse thousands of guitar tabs and chat w/ musicians like yourself.


It's Free!

This tab has been rated a 4.75 out of 5 for accuracy. (4 votes)Sorry, but you must be logged in to rate this tab.
Click here to log-in, or you can click here to register.
(Registration is free)

All songs owned by corresponding publishing company. If you make copies of any song on this website, be sure to report your usage to CCLI.
Submitted by: switchfootprson

Album: Cities
Title: The Unwinding Cable Car

Standard tuning

X= dont play this string in this section.
s= slide

Im aiming for accuracy, not time. This is my first tab, so feel free to correct
me if I mess up. I tabbed this song because there was chords for it, but no tab 
for it.

Intro
e-X
b---------5-4----------| 
g---------------6-4----|
d---6-------------------|
a-4---4----------------|
E-X
 
b-X
g-------------6-------------4-|
d-------4-4----------2-2----|
a-2-2----------0-0----------|

b-5-4----------5-4-------|
g-------6-4----------6-4-|
d-X
a-X

(acoustic chords come in)
b-5-4---------------------------------5-4----------------------------------|
g-------6-4---------------------------------6-4----------------------------|
d-------------2-4-s6---2-4-6------------------2-4-s6---2-4-6------|
a-----------------------------------4--------------------------------------4-|

Verse
b-X
g-X
d----2-4-s6------2-4-6---------2-4-s6------2-4-6--------|
a-4--------------4----------4---4--------------4---------4---2-| 

b-X
g-X
d----2-4-s6------2-4-6---------2-4-s6---2-2-4-2----------|
a-4--------------4----------4---4----------------------------6-4--|
  
Chorus
b-5-4---------------------------------5-4---------------------------------|
g-------6-4---------------------------------6-4---------------------------|
d-------------2-4-s6---2-4-6------------------2-4-s6---2-4-6-----|      (X2)
a-----------------------------------4-------------------------------------4--|

VERSE

CHORUS

Bridge
e-------0---------0---------0---------0---------2---------2---------2---------2---------0---------0                    
b----0---------0---------0---------0---------2---------2---------2---------2---------0---------0---                    
g-2---------2---------2---------2---------4---------4---------4---------4---------2---------2------                           

------0---------0---------7---------7---------7---------7-|     
---0---------0---------4---------4---------4---------4----|        (X2)
2---------2---------4---------4---------4---------4-------|
 
  
e-------0---------0---------0---------0---------2---------2---------2---------2---------7-   
b----0---------0---------0---------0---------2---------2---------2---------2---------4----
g-2---------2---------2---------2---------4---------4---------4---------4---------4-------

------7---------7---------7---------7---------7---------7---------7-|
---4---------4---------4---------4---------4---------4---------4----|
4---------4---------4---------4---------4---------4---------4-------| 

then
b-5-4---------------------|
g-------6-4---------------|
d-------------2-4-6------|     (X2)
a----------------------4---|

CHORUS

Outro
e-------0---------0---------0---------0---------2---------2---------2---------2---------0                    
b----0---------0---------0---------0---------2---------2---------2---------2---------0--                    
g-2---------2---------2---------2---------4---------4---------4---------4---------2-----                           

---------0---------0---------0---------7---------7---------7---------7--|     
-------0---------0---------0---------4---------4---------4---------4----|        
-----2---------2---------2---------4---------4---------4---------4------|
This is an awesome  song. Hope you enjoy it!

Comments about this tab

sac346 - 2007-05-14

huh?


Oh!Gravity - 2007-08-13

Nice tab. Everything sounds right on.


gsusguitar - 2008-03-24

Nice. I just tabbed this song. I was just looking to see how different my tab is/was from yours. The two are very close. I tend to miss stuff when I do listen for guitar chords, so that's where the differences would be. This song was easy for me to tab. Anyway, good job.


gsusguitar - 2008-03-24

...Oh yes and I like this song.


musicservant - 2008-08-08

i noticed in the intro, it says the last note is fourth fret g string, but I think it's actually 4th fret B string... that's what I think anyway, tell me if I'm wrong...


musicservant - 2008-08-08

Sorry, I also don't hear the
D|----6----
A|--4---4--
but i think i might have a different version of this song, the vocals sound different...


Add a comment/correction

Complimentary Christian Ringtones
Dadamobile and CGR have teamed up to bring your favorite Christian artists right to your phone. Sign up today and get 10 complementary ringtones!
Tab Country
Did you know CGR has a sister site w/ country guitar tabs? Well we do! Its called Tab Country. It has a great archive with a lot of country tabs.
Rockin Tabs
Are you looking for a site that has rock guitar tabs? Then Rockintabs.com is the place for you. It is a budding site with many rock guitar tabs. Submit your tab today.
Tab Gallery
Tab Gallery has a compilation of christian, rock, and country tabs all in one place. Come visit us.