Guitar Tabs
song title    band name

Join Us Today!

Don't strum alone...
be a part of the largest online Christian music community. Browse thousands of guitar tabs and chat w/ musicians like yourself.


It's Free!

This tab has been rated a 5.00 out of 5 for accuracy. (2 votes)Sorry, but you must be logged in to rate this tab.
Click here to log-in, or you can click here to register.
(Registration is free)

All songs owned by corresponding publishing company. If you make copies of any song on this website, be sure to report your usage to CCLI.
Submitted by: RighteousOSL

Song:   Uncreated One
Artist: Chris Tomlin
Album:  See The Morning
Note:   This was paintstakingly transcribed by ear.  Accuracy is very important
to me.  It is a challenging song, and it's going to be hard for you to learn it
without the words displayed under the tabs (due to copyright issues).  I suggest
listening to the song several times in order to work out some of the intricacies
of it.

CAPO 3.  Tabs relative to open tuning.

Intro: 
     C               am      G      C              am       G
e ||------------------------------|--------3---------------------|
B ||----4---6---4-------4---6---4-|----4-------6---4---4---6---4-|
G ||---3---3---3-------3---3------|---3---3---3---3---3---3------|
D ||------------------------------|------------------------------|
A ||-6---6---6---6---3---3--------|-6---6---6---6---3---3--------|
E ||-------------------------6----|-------------------------6----|

Verse 1:
     C F  G    F G   C             F      C        G
e ||--------------------------|------------------------------|
B ||-4-------4---3---4--------|------4------6------4---6-3---|
G ||-3-3--3----5-------3-6/8--|----5------3-----------3----3-|
D ||---3--5-----------------3-|------------------------------|
A ||-6---------------6--------|------------------------------|
E ||-----------4-6------------|----4------3--------6-----6---|
    H...                       y...

         C   C/B       am      C          F      G     C     [ v.1 ][v.2-4 ]
e ||-----3--3-----------------------|---------------------4--|-3---|-------|
B ||-------4-6---------4-----6-4-3--|--------4-6-4-3---4---4-|--4--|-6/8-4-|
G ||------3--------------5-3--------|-----5--------------3---|---3-|----3--|
D ||--------------------------------|------------------------|-----|-------|
A ||-----6---5---------3------------|------------------6-----|-----|-------|
E ||---------------------------3----|-----4------6-----------|-----|-------|
   B...                              i...

(Verse 2)

Chorus:
     G           F   C       G                 F    C
e ||---------------4-3-3--|----------------------4-3----|
B ||-----3--4-3---4-4-4-6-|-------3---4---3-----4-4--4--|
G ||-3-----------5--------|---3----------------5----3-3-|
D ||----------------------|-----------------------------|
A ||-----------------6----|------------------------6----|
E ||-6------6----4--------|---6-------6--------4--------|
    O...                  O..

     G              F  G  Am             F     G       >
e ||-----------------------------------|--------------->
B ||-----3---4-3-------3--4--4--4-6--4-|----4--4--3---->
G ||-3--------------5-------5--5-------|-5------------->
D ||-----------------------------------|--------------->
A ||----------------------3------------|--------------->
E ||-6-------6------4--6---------------|-4-----6------->
    O...                                T...

Bridge:
      C               am       G                 (Repeat)
e ||--------------------------------------|
B ||--4---4---6---4----4---4---6---3/4-6--|
G ||----3---3---3---3----3---3---3--------|
D ||--------------------------------------|
A ||--6----------------3------------------|
E ||---------------------------6----------|

(Verse 3)

(Chorus)

(Bridge)

(Verse 4)

(Chorus) with Tag:
    Am              F     G       >
e ||--------------|--------------->
B ||-4--4--4-6--4-|----4--4--3---->
G ||---5--5-------|-5------------->
D ||--------------|--------------->
A ||-3------------|--------------->
E ||--------------|-4-----6------->
                   T...

(Bridge) x2
End on C.

Comments about this tab

JasonD - 2008-03-31

good tab :) ... its such a great song!

NOTE: just fyi for other people ... it says it's relative to capo, but its not been tabbed that way, lol. put the capo on the 3rd fret, and minus 3 from each numbers to get the correct tab. most will catch this, but for beginners it may make life interesting!


RighteousOSL - 2008-05-14

At the top it says "Tabs relative to open tuning." I wrote the song so that the numbers on the tab correspond exactly to that number on your fretboard (ex. if it says '6' on the tab then that means play the note on the sixth fret of your guitar).

If you'd like the tabs relative to the capo 3, then the above comment is correct.


Add a comment/correction

Complimentary Christian Ringtones
Dadamobile and CGR have teamed up to bring your favorite Christian artists right to your phone. Sign up today and get 10 complementary ringtones!
Tab Country
Did you know CGR has a sister site w/ country guitar tabs? Well we do! Its called Tab Country. It has a great archive with a lot of country tabs.
Rockin Tabs
Are you looking for a site that has rock guitar tabs? Then Rockintabs.com is the place for you. It is a budding site with many rock guitar tabs. Submit your tab today.
Tab Gallery
Tab Gallery has a compilation of christian, rock, and country tabs all in one place. Come visit us.