Guitar Tabs
song title    band name

Join Us Today!

Don't strum alone...
be a part of the largest online Christian music community. Browse thousands of guitar tabs and chat w/ musicians like yourself.


It's Free!

This tab has been rated a 5.00 out of 5 for accuracy. (1 vote)Sorry, but you must be logged in to rate this tab.
Click here to log-in, or you can click here to register.
(Registration is free)

All songs owned by corresponding publishing company. If you make copies of any song on this website, be sure to report your usage to CCLI.
Submitted by: Rockstar777

Band:Underoath
Song: Dangerous business
Tuning:not sure, maybe drop D
 

INTRO
 
Guitar 1                   Guitar 2
|--------------            |-----------------
|--------------            |-----------------
|---5-55-------            |---9-99----------
|---5-55-------            |---9-99----------
|---0-00-------            |---0-00----------
|--------------            |-----------------

VERSE 1

Guitar 1 & 2 

|------------------------------------------------------------------
|------------------------------------------------------------------
|--9----------555--9-----------555---5-----------------------------
|--X--12times-555--X--12Times--555---X--12 Times--33333333-55555555
|--7----------000--7-----------000---3------------33333333-55555555
|-------------------------------------------------33333333-55555555

Pause for Keyboard Part or just let the feedback ring.


Verse2(continued)
Guitars 1 & 2
|--------------------
|--------------------
|---555--------------
|---555-------------- Do this alot until the Chorus
|---000--------------
|--------------------

Chorus Guitars 1 & 2

|------------------------------------------------------------
|------------------------------------------------------------
|---555------------------------------------------------------
|---555--X14--33333333--55555555-----------------------------Repeat this twice it will lead into the breakdown
|---000-------33333333--55555555-----------------------------
|-------------33333333--55555555-----------------------------

Chorus continued(Breakdown Intro)guitar 1 till does the first chorus part
 
Guitar 2

|--------------------------------------------------------------
|--------------------------------------------------------------
|14-----12----14-----12-----14----16-----17-----16-------------
|-x-X8--x--X8--x--X8--x--X8--x-X8--x--X8--x--X8--x--X8---------
|12-----10----12-----10-----12----14-----15-----14-------------
|--------------------------------------------------------------


BreakDown

Guitar 1 & 2

|-------------------------
|-------------------------
|14-14--12-12------------5~
|-x-x----x--x---8 Times--5~
|12-12--10-10------------0~
|-------------------------

Pause for the drum solo

 During the choir part do this:
|-----------------------------------------------|
|---555-----555------555------------------------|
|---555-----555------555------------------------|
|---000-----000------000-----33333333-55555555--|
|----------------------------33333333-55555555--|
|----------------------------33333333-55555555--|


Then just repeat the verse 1 part

Then the chorus again

Then the Breakdown intro again for guitar 2


Key
 Ring out ~
 Muted  x



That's how i play it and it sounds nearly perfect.
 i hope ya'll like it and god bless. 
oh yea this is my first tab ever so go me!

Comments about this tab

Rockstar777 - 2007-04-18

wow, i did a good job on this tab since it is my first one.


Rockstar777 - 2007-05-26

okay, i screwed up a little, on the verse the very end strumming is supposed to be 2 then 7 not 3 and 5. now this tab is almost perfect.


Add a comment/correction

Complimentary Christian Ringtones
Dadamobile and CGR have teamed up to bring your favorite Christian artists right to your phone. Sign up today and get 10 complementary ringtones!
Tab Country
Did you know CGR has a sister site w/ country guitar tabs? Well we do! Its called Tab Country. It has a great archive with a lot of country tabs.
Rockin Tabs
Are you looking for a site that has rock guitar tabs? Then Rockintabs.com is the place for you. It is a budding site with many rock guitar tabs. Submit your tab today.
Tab Gallery
Tab Gallery has a compilation of christian, rock, and country tabs all in one place. Come visit us.