Guitar Tabs
song title    band name

Join Us Today!

Don't strum alone...
be a part of the largest online Christian music community. Browse thousands of guitar tabs and chat w/ musicians like yourself.


It's Free!

This tab has not yet been rated for accuracy.Sorry, but you must be logged in to rate this tab.
Click here to log-in, or you can click here to register.
(Registration is free)

All songs owned by corresponding publishing company. If you make copies of any song on this website, be sure to report your usage to CCLI.
Submitted by: oggycheese

Drop C# = drop D with all strings tuned down half a step.


Intro just power chords
eb|---------------------------------------------------------------------
Bb|---------------------------------------------------------------------
Gb|---------------------------------------------------------------------
Db|-2-4-xxxxxxxxxxxx-2-4-xxxxxxxxxxxx-2-4-xxxxxxxxxxxx-2-4-xxxxxxxxxxxx-
Ab|-2-4-xxxxxxxxxxxx-2-4-xxxxxxxxxxxx-2-4-xxxxxxxxxxxx-2-4-xxxxxxxxxxxx-
Db|-2-4-xxxxxxxxxxxx-2-4-xxxxxxxxxxxx-2-4-xxxxxxxxxxxx-2-4-xxxxxxxxxxxx-

Intro part 2, power chords with a riff

eb|-----------------------------------------------------------------------
Bb|-----------------------------------------------------------------------
Gb|-----------------------------------------------------------------------
Db|-2-4-----------------------2-4----------------------4-7-447744---------
Ab|-2-4-447744----------------2-4-447744---------------4-7-------7774~5~4-
Db|-2-4-------777-5~6~5-2-4---2-4-------777-5~6~5-2-4--4-7----------------

eb|------------------------
Bb|------------------------
Gb|------------------------
Db|-2-4--------------------
Ab|-2-4-447744-------------
Db|-2-4-------777-5~6~5-2-4

Verse
eb|------------------
Bb|------------------
Gb|------------------
Db|-2-4-------------- x4
Ab|-2-4--------------
Db|-2-4--------------

then with the riff again:

eb|----------------------------------------------------------------------- )
Bb|----------------------------------------------------------------------- )
Gb|----------------------------------------------------------------------- )
Db|-2-4-----------------------2-4----------------------4-7-447744--------- )
Ab|-2-4-447744----------------2-4-447744---------------4-7-------7774~5~4- )
Db|-2-4-------777-5~6~5-2-4---2-4-------777-5~6~5-2-4--4-7---------------- )
                                                                           )x2
eb|-------------------------                                               )
Bb|-------------------------                                               )
Gb|-------------------------                                               )
Db|-2-4---------------------                                               )
Ab|-2-4-447744--------------                                               )
Db|-2-4-------777-5~6~5-2-4-                                               )

prechorus
eb|-----------------------------
Bb|-----------------------------
Gb|-----------------------------
Db|-0-------------2-------------
Ab|-0-------------2-------------
Db|-0-------------2-------------

chorus                                                    (t is 10)
eb|--------------------------------------------------------------------------
Bb|----------------------------------------------------------------------14~-
Gb|--------------------------------------------------------------------------
Db|-4444444444444474-4444444444444444-7777777777777797-tttttttttttttttt------ 
Ab|-4444444444444444-2222222222222222-7777777777777777-6666666666666666------
Db|-4444444444444444-2222222222222222-7777777777777777-6666666666666666------

eb|-------------------------
Bb|-------------------------
Gb|-------------------------
Db|-2-4---------------------
Ab|-2-4-447744--------------
Db|-2-4-------777-5~6~5-2-4-

Verse
PreChours
Chorus

Bridge

eb|---------------
Bb|---------------
Gb|---------------
Db|--------------- repeat
Ab|---------------
Db|-4~-4~-4~-4472-

prechorus

chorus                                                    (t is 10)
eb|--------------------------------------------------------------------------
Bb|----------------------------------------------------------------------14~-
Gb|--------------------------------------------------------------------------
Db|-4444444444444474-4444444444444444-7777777777777797-tttttttttttttttt------ 
Ab|------------------2222222222222222-7777777777777777-6666666666666666------
Db|------------------2222222222222222-7777777777777777-6666666666666666------


End

eb|---
Bb|---
Gb|---
Db|-4-
Ab|-4-slide down
Db|-4-

Comments about this tab

No comments/corrections found. Add your own

Complimentary Christian Ringtones
Dadamobile and CGR have teamed up to bring your favorite Christian artists right to your phone. Sign up today and get 10 complementary ringtones!
Tab Country
Did you know CGR has a sister site w/ country guitar tabs? Well we do! Its called Tab Country. It has a great archive with a lot of country tabs.
Rockin Tabs
Are you looking for a site that has rock guitar tabs? Then Rockintabs.com is the place for you. It is a budding site with many rock guitar tabs. Submit your tab today.
Tab Gallery
Tab Gallery has a compilation of christian, rock, and country tabs all in one place. Come visit us.