Guitar Tabs
song title    band name

Join Us Today!

Don't strum alone...
be a part of the largest online Christian music community. Browse thousands of guitar tabs and chat w/ musicians like yourself.


It's Free!

This tab has been rated a 5.00 out of 5 for accuracy. (1 vote)Sorry, but you must be logged in to rate this tab.
Click here to log-in, or you can click here to register.
(Registration is free)

All songs owned by corresponding publishing company. If you make copies of any song on this website, be sure to report your usage to CCLI.
Submitted by: nbenoit90

This song is in drop "D"...that means if you are tuned in "E" you need to take 
your low "E" string and tune in to "D".  You can do this on a Bass chromatic 
tuner.

Have fun with this song :)


Intro:

E--------------------------------------------------------------------------------
B--------------------------------------------------------------------------------
G-------------6-7------11-------9------13-16-14-------6-7------11-------9---9-9-9
D-----0-2-0---x-x--0-0--x--0-0--x--0-0--x--x--x--0-0--x-x--0-0--x--0-0--x---x-x-x
A-----0-2-0---4-5--0-0--9--0-0--7--0-0-11-14-12--0-0--4-5--0-0--9--0-0--7---7-7-7
E-----0-2-0--------0-0-----0-0-----0-0-----------0-0-------0-0-----0-0-----------

Repeat like 7 times

Verse:

D D G D
C G A7sus A7
D D G D
C G A7sus A7

Pre-chourus:

G2 A2 B2 C2

Chourus:

D D G G 
C G D (Half of Intro)

like this...

E--------------------------------
B--------------------------------
G-------------6-7------11-------9
D-----0-2-0---x-x--0-0--x--0-0--x
A-----0-2-0---4-5--0-0--9--0-0--7
E-----0-2-0--------0-0-----0-0---

and then come back to...

G Em A7 D(Whole Intro)

There you go, I hope you can figure it out...It really is simple!

Let me know if you have questions or comments,

Nicole 

Comments about this tab

Switchfoot_ - 2007-04-17

Perfect! This doesn't really matter, but the A7sus sounds better if it's just A. Well, awesome tab! Better than a five! 10!


Switchfoot_ - 2007-04-17

Oh, and I love how it's just one page, not 10. the other ones on this site are really long, but this is by far the best.


Add a comment/correction

Complimentary Christian Ringtones
Dadamobile and CGR have teamed up to bring your favorite Christian artists right to your phone. Sign up today and get 10 complementary ringtones!
Tab Country
Did you know CGR has a sister site w/ country guitar tabs? Well we do! Its called Tab Country. It has a great archive with a lot of country tabs.
Rockin Tabs
Are you looking for a site that has rock guitar tabs? Then Rockintabs.com is the place for you. It is a budding site with many rock guitar tabs. Submit your tab today.
Tab Gallery
Tab Gallery has a compilation of christian, rock, and country tabs all in one place. Come visit us.