Guitar Tabs
song title    band name

Join Us Today!

Don't strum alone...
be a part of the largest online Christian music community. Browse thousands of guitar tabs and chat w/ musicians like yourself.


It's Free!

This tab has been rated a 4.00 out of 5 for accuracy. (2 votes)Sorry, but you must be logged in to rate this tab.
Click here to log-in, or you can click here to register.
(Registration is free)

All songs owned by corresponding publishing company. If you make copies of any song on this website, be sure to report your usage to CCLI.
Author/Artist: Phil Keaggy
Title: Maker of the Universe (Intro)
Album: Way Back Home

Hi all,
 Seeing Phil last week inspired me to sit down & (try) to learn some songs
I have been meaning to learn for a while now.  Here's how I play the intro
to "Maker of the Universe".  Thanks John & Ken for posting the chords last
week.  Note: tune 1 whole step down DGCFAD.

-0------0----------|--------------|-0-----0---------|-----------------|-------
---------------1p0-|---0-----0----|-------------1p0-|---0-------------|-------
-----2-------------|-2-------0----|-----2-----------|-2--------1------|-------
---2---------------|--------------|---3-------------|-2------2--------|-------
-0-----------------|--------------|-----------------|-----------------|-------
-------------------|-3-------3----|-1---------------|-0--------0------|-------
                                                                              

-------------------|--------------|------------------0-|--------------|-------
-3-----3-------1p0-|--------------|-3----------0h1-3---|-1---0--------|-------
-----0-------------|-0-2-----2----|-0-------0h2--------|---------2----|-------
---0---------------|---------3----|--------------------|---------3----|-------
-------------------|--------------|--------------------|-0-------3----|-------
-3-----------------|-1------------|-3------------------|--------------|-------

Comments about this tab

inhissteps33 - 2009-01-02

There was small error with these in the first and third measures (3p2). I fixed it, but thanks for the tabs! Not really good at this tab stuff yet. :)


-0------0----------|--------------|-0-----0---------|-----------------|-------
---------------3p2-|---0-----0----|-------------3p2-|---0-------------|-------
-----2-------------|-2-------0----|-----2-----------|-2--------1------|-------
---2---------------|--------------|---3-------------|-2------2--------|-------
-0-----------------|--------------|-----------------|-----------------|-------
-------------------|-3-------3----|-1---------------|-0--------0------|-------


-------------------|--------------|------------------0-|--------------|-------
-3-----3-------1p0-|--------------|-3----------0h1-3---|-1---0--------|-------
-----0-------------|-0-2-----2----|-0-------0h2--------|---------2----|-------
---0---------------|---------3----|--------------------|---------3----|-------
-------------------|--------------|--------------------|-0-------3----|-------
-3-----------------|-1------------|-3------------------|--------------|-------

In His Steps,
Theo:)


Add a comment/correction

Complimentary Christian Ringtones
Dadamobile and CGR have teamed up to bring your favorite Christian artists right to your phone. Sign up today and get 10 complementary ringtones!
Tab Country
Did you know CGR has a sister site w/ country guitar tabs? Well we do! Its called Tab Country. It has a great archive with a lot of country tabs.
Rockin Tabs
Are you looking for a site that has rock guitar tabs? Then Rockintabs.com is the place for you. It is a budding site with many rock guitar tabs. Submit your tab today.
Tab Gallery
Tab Gallery has a compilation of christian, rock, and country tabs all in one place. Come visit us.