Guitar Tabs
song title    band name

Join Us Today!

Don't strum alone...
be a part of the largest online Christian music community. Browse thousands of guitar tabs and chat w/ musicians like yourself.


It's Free!

This tab has not yet been rated for accuracy.Sorry, but you must be logged in to rate this tab.
Click here to log-in, or you can click here to register.
(Registration is free)

All songs owned by corresponding publishing company. If you make copies of any song on this website, be sure to report your usage to CCLI.
Submitted by: stealth3_1

Hillsongs United
Break Free
All of The Above 

 Hey this is my first time tabbing
Any suggestions or corrections would 
Be kindly accepted
 
   h - hammer on 
      p - pull off 
      b - bend string up
      r - release bend
      / - slide up
      \ - slide down
      ~- vibrato 
      t - tap (with strumming hand)
      x - muted, struck string

E-------------------------------------------------------------------------------------------------------------------------------
B-------------------------------------------------------------------------------------------------------------------------------
G-------------------------------------------------------------------------------------------------------------------------------
D-------------------------------------------------------------------------------------------------------------------------------
A-------------------------------------------------------------------9-------9--11-------------------------9-------911~--
E---2--2--2--2--2--2--2--2--2--2--22--2--2/10--10--10------10-------------10x-10x-10x--10-----10------------

Play that 4 times
Then:

E----------------------------------------------------------------------------------------------------------------------
B----------------------------------------------------------------------------------------------------------------------
G----------------------------------------------------11--11--12--12--11--11--13--13----------------------------
D----------------------------------------------------11--11--12--12--11--11--13--13----------------------------
A----------------------------------------------------- 9---9--10--10---9---9---11--11-----------------------------
E---2--2--2--2--2--2--2--2--2--2--2--2--2--2---------------------------------------------------------------------

Play Twice 

Second Verse (Bass slides in)

E-------------------------------------------------------------------------------------------------------------------------------
B-------------------------------------------------------------------------------------------------------------------------------
G-------------------------------------------------------------------------------------------------------------------------------
D-------------------------------------------------------------------------------------------------------------------------------
A-------------------------------------------------------------------9-------9--11-------------------------9-------911~--
E---2--2--2--2--2--2--2--2--2--2--22--2--2/10--10--10------10-------------10x-10x-10x--10-----10------------

Play twice


E----------------------------------------------------------------------------------------------------------------------
B----------------------------------------------------------------------------------------------------------------------
G----------------------------------------------------11--11--12--12--11--11--13--13----------------------------
D----------------------------------------------------11--11--12--12--11--11--13--13----------------------------
A----------------------------------------------------- 9---9--10--10---9---9---11--11-----------------------------
E---2--2--2--2--2--2--2--2--2--2--2--2--2--2---------------------------------------------------------------------

Play twice 







Chorus 

E----------------------------------------------------------------------------
B----------------------------------------------------------------------------
G-------------7------9-----11-------7--------------------------------------
D---7--------7------9-----11--------7-------------------------------------
A---7--------5-----7-------9--------5-------------------------------------
E---5-----------------------------------------------------------------------

Play twice
Then back to Second Verse

Chorus 

E----------------------------------------------------------------------------
B----------------------------------------------------------------------------
G-------------7------9-----11-------7--------------------------------------
D---7--------7------9-----11--------7-------------------------------------
A---7--------5-----7-------9--------5-------------------------------------
E---5-----------------------------------------------------------------------

Play twice


Bridge

E--------------------------------
B--------------------------------
G---9----11----7---------------
D---9----11----7---------------
A---7----9-----5---------------
E--------------------------------

Play Four times
Then (these are not in proper rhythm or time)

E----2----------2------------------
B----2----------3------------------
G----2----------2----------------
D----4----------0----------------
A------------------------------
E--------------------------------

After playing this several times go back to chorus
Then end by repeating the F#






Comments about this tab

No comments/corrections found. Add your own

Complimentary Christian Ringtones
Dadamobile and CGR have teamed up to bring your favorite Christian artists right to your phone. Sign up today and get 10 complementary ringtones!
Tab Country
Did you know CGR has a sister site w/ country guitar tabs? Well we do! Its called Tab Country. It has a great archive with a lot of country tabs.
Rockin Tabs
Are you looking for a site that has rock guitar tabs? Then Rockintabs.com is the place for you. It is a budding site with many rock guitar tabs. Submit your tab today.
Tab Gallery
Tab Gallery has a compilation of christian, rock, and country tabs all in one place. Come visit us.