Guitar Tabs
song title    band name

Join Us Today!

Don't strum alone...
be a part of the largest online Christian music community. Browse thousands of guitar tabs and chat w/ musicians like yourself.


It's Free!

This tab has not yet been rated for accuracy.Sorry, but you must be logged in to rate this tab.
Click here to log-in, or you can click here to register.
(Registration is free)

All songs owned by corresponding publishing company. If you make copies of any song on this website, be sure to report your usage to CCLI.
Submitted by: madguitarist

hey guys, this is just the guitar intro
(sorry, i'm too lazy lol)

Song-Up and Up
Band-Relient k
Tuning-standard (or tune half a step down,
and play it one fret up)

E------------------------------------------------------------
B---8----8-8-6-------8-8-6-------6-5-------------------------
G-5----5-------5--5--------5---------------------------------
D-----------------------------5------------------------------x(like 4 i think
A------------------------------------------------------------
E------------------------------------------------------------

Comments about this tab

Switchfoot_ - 2007-05-15

Here's my (full, correct) version. Nice try, though! it's a hard song!


Up and Up,
by Relient K
Five Score and Seven Years Ago
on Gotee and Calpitol Records

Tunning: Half/step down (Eb)
Intro:
Guitar 1
Eb|-----------------------------------------
Bb|-----------------------------------------
Gb|---12----12-12-10-------12-12-10-----10-9
Db|10-----10--------10--10---------10-------
Ab|-----------------------------------10----
Eb|----------------------------------------- x2

Guitar 2 (comes in on second time):C D F C

Verse: Guitar 1: play intro

Guitar 2:(palm mute)C D F C

Pre-chorus:F G A F C G x2 (or until chorus starts)

Chorus:F G A x3

Post-chorus: (cause i'm just trying to be...") C B A G F

Intro

Verse 2: same as verse one

Pre-chorus

Chorus

Post-chorus

Bridge:A F C G

Chorus

Post-chorus

End on F


Add a comment/correction

Complimentary Christian Ringtones
Dadamobile and CGR have teamed up to bring your favorite Christian artists right to your phone. Sign up today and get 10 complementary ringtones!
Tab Country
Did you know CGR has a sister site w/ country guitar tabs? Well we do! Its called Tab Country. It has a great archive with a lot of country tabs.
Rockin Tabs
Are you looking for a site that has rock guitar tabs? Then Rockintabs.com is the place for you. It is a budding site with many rock guitar tabs. Submit your tab today.
Tab Gallery
Tab Gallery has a compilation of christian, rock, and country tabs all in one place. Come visit us.