Guitar Tabs
song title    band name

Join Us Today!

Don't strum alone...
be a part of the largest online Christian music community. Browse thousands of guitar tabs and chat w/ musicians like yourself.


It's Free!

This tab has been rated a 0.00 out of 5 for accuracy. (1 vote)Sorry, but you must be logged in to rate this tab.
Click here to log-in, or you can click here to register.
(Registration is free)

All songs owned by corresponding publishing company. If you make copies of any song on this website, be sure to report your usage to CCLI.
Submitted by: futbol4god

Hey I tryed to figure out this song and this is what I got

Standard Tuning

intro

|---------------------------------
|---------------------------------
|---------------------------------
|----7-7--7-9-5-7----3-3---5-5---
|----7-7--7-9-5-7----3-3---5-5---
|----5-5--5/7-3/5----1-1---3-3--- repeat

break
|-----------------------------------
|-----------------------------------
|-----------------------------------
|-----------------------------------
|------------7--5--3----------------
|---7--5--3-----------3----5--------

verse
|------------R----play this right before the chorus
|------------E------------------------
|------5--7--P----5--7--9------------
|--7---5--7--E----5--7--9------------let ring
|--7---3--5--A----3--5--7-----------
|--5---------T-----------------------
 p.m. ..............

chorus
|------------------------------------
|------------------------------------
|-----------------------------9------
|--7--3-5---5--3-5---5--3-5--9------
|--7--3-5---5--3-5---5--3-5--7------
|--5--1-3---7--1-3---7--1-3---------

break
|---7p5-5h7-7p5-5h7-7p5-5h7-7p5-5h7--5p3-3h5-5p3-3h5-5p3-3h5-5p3-3h5           
then add this after the second time at the end ---7b
|-----------------------------------------------------------------------      
|----------------------------------------------------------------------- repeat
 2x
|-----------------------------------------------------------------------
|-----------------------------------------------------------------------
|-----------------------------------------------------------------------

There I hope I got it all boy that took awhile! Please make corrections and 
comments! I just tried to figure this out bcuz no one else had it submitted. 
Have fun! God Bless!
Kuldin age 14

Comments about this tab

No comments/corrections found. Add your own

Complimentary Christian Ringtones
Dadamobile and CGR have teamed up to bring your favorite Christian artists right to your phone. Sign up today and get 10 complementary ringtones!
Tab Country
Did you know CGR has a sister site w/ country guitar tabs? Well we do! Its called Tab Country. It has a great archive with a lot of country tabs.
Rockin Tabs
Are you looking for a site that has rock guitar tabs? Then Rockintabs.com is the place for you. It is a budding site with many rock guitar tabs. Submit your tab today.
Tab Gallery
Tab Gallery has a compilation of christian, rock, and country tabs all in one place. Come visit us.