Guitar Tabs
song title    band name

Join Us Today!

Don't strum alone...
be a part of the largest online Christian music community. Browse thousands of guitar tabs and chat w/ musicians like yourself.


It's Free!

This tab has not yet been rated for accuracy.Sorry, but you must be logged in to rate this tab.
Click here to log-in, or you can click here to register.
(Registration is free)

All songs owned by corresponding publishing company. If you make copies of any song on this website, be sure to report your usage to CCLI.
Submitted by: Icemar

Someone Else Before by Hawk Nelson
Written by Jason Dunn

This is the chorus of the song in regular tuning for all those of you
who are like me and dont feel like re-tuning evry time you play


e|---------------------------------
B|---------------------------------
G|---------------------------------
D|-13-13---8-8---10-10--6-6--------  x2 for the beginning of the chorus
A|-13-13---8-8---10-10--6-6--------
E|-11-11---6-6---8--8---4-4--------


then play it fast and watch for the chord changes

e|---------------------------------
B|---------------------------------
G|---------------------------------
D|-13----8----10----6--------------  
A|-13-x4-8-x4-10-x4-6-x4-----------
E|-11----6----8-----4--------------


then for the whoas after its the same chord but with palm mutes evry other 
two chords

e|---------------------------------
B|---------------------------------
G|---------------------------------
D|-13-13-13-13----8-8-8-8----10-10-10-10----6-6-6-6-----------  
A|-13-13-13-13-x2-8-8-8-8-x2-10-10-10-10-x2-6-6-6-6-x2--------
E|-11-11-11-11----6-6-6-6----8--8--8--8-----4-4-4-4-----------
   * *            * *        *  *           * *

im fairly certain the verses can be played in a similar way, but im
still workin on them

questions or comments email me at ziaduck@msn.com 
 



Comments about this tab

No comments/corrections found. Add your own

Complimentary Christian Ringtones
Dadamobile and CGR have teamed up to bring your favorite Christian artists right to your phone. Sign up today and get 10 complementary ringtones!
Tab Country
Did you know CGR has a sister site w/ country guitar tabs? Well we do! Its called Tab Country. It has a great archive with a lot of country tabs.
Rockin Tabs
Are you looking for a site that has rock guitar tabs? Then Rockintabs.com is the place for you. It is a budding site with many rock guitar tabs. Submit your tab today.
Tab Gallery
Tab Gallery has a compilation of christian, rock, and country tabs all in one place. Come visit us.