Guitar Tabs
song title    band name

Join Us Today!

Don't strum alone...
be a part of the largest online Christian music community. Browse thousands of guitar tabs and chat w/ musicians like yourself.


It's Free!

This tab has not yet been rated for accuracy.Sorry, but you must be logged in to rate this tab.
Click here to log-in, or you can click here to register.
(Registration is free)

All songs owned by corresponding publishing company. If you make copies of any song on this website, be sure to report your usage to CCLI.
Author/Artist: Phil Keaggy
Title: Full Circle
Album: Town to Town
Transcribed by: Phil Rose
Email: prose@ibm.net

Since someone recently posted the words to this, I thought I'd throw out a
tab of the way PK used to play this live way back in the early 80's.
Its fairly simple, but contains some fun bongo stuff (done long before
"bongo hits" and "tapping" were popular).  The hard part is the drum solo
(on guitar) at the end.

everything is strummed (of course you can add what you want).

above the tab symbols
/ - down beat  !!!IMPORTANT!!!
B - bongo hit behind and below the bridge (low bongo sound)
b - bongo hit just below the soundhole (higher bongo sound)
  (Bongo hits are a slap on the guitar w/ the right hand between strums 
   at the location indicated above).

in the tab symbols
h - hammer on


Notice that most of the strums are on the UP beat (with a down stroke).

Standard tuning.
Repeat first bar 2 times for intro.

  /    /   /   /    /    /   /   /    /    /   /   /    /   /   /   /
       B   b b B         B   b b B         B   B   B    B   B   b b B
E-7--7---5---------|7--7---5---------|7--7---5---0---0-|--3---2-------------
B-7h87---5---------|7h87---5---------|7h87---5---3---1-|--0---3-------------
G-7--7---5---------|7--7---5---------|7--7---5---4---2-|--0---2-------------
D-7h97---5---------|7h97---5---------|7h97---5---4---2-|--0---0-------------
A-0--0---0---------|0--0---0---------|0------0---0---0-|--2---0-------------
E------------------|-----------------|-----------------|--3---2-------------
  Looking back      I  must say...                             (repeat once)
                                                                              
 /   /   /   /    /   /   /   /    /   /   /   /   /   /   /   /
 (no bongos)                       (fill in with strums for crescendo feel)
-0-0---0---------|3-----2---------|0-----0--------|2-----2-----------------
-1-3---1---------|0-----3---------|3-----3--------|2-----2-----------------
-0-0---0---------|0-----2---------|2-----1--------|4-----3-----------------
-2-0---2---------|0-----4---------|2-----2--------|2-----2-----------------
-0-2---3---------|2-----2---------|2-----2--------|4-----4-----------------
-----------------|3---------------|0-----0--------|2-----2-----------------
You took my hand  Me    out   of   Dark  ness
                                  
        and led   

Chorus:
 /   /   /   /    /   /   /   /    /   /    /   /    /   /   /   /
     B   b b B        B   b b B        B    b b B        B   b b B 
-2-4---5---------|5-4---2---------|2-4----0---------|0-2---4----------------
-3-5---7---------|7-5---3---------|3-5----2---------|2-3---5----------------
-2-4---6---------|6-4---2---------|2-4----1---------|1-2---4----------------
-4-6---7---------|7-6---4---------|4-6----2---------|2-4---6----------------
-2-4---5---------|5-4---2---------|2-4----0---------|0-2---4----------------
-----------------|----------------|-----------------|-----------------------
 Full  Circle...                                                (repeat once)

bridge from chorus back to verse:
 Dm7!!!NOT DM7
 /   /   /   /    /   /   /   /    /   /   /   /    /   /   /   /
(no bongos, fill in strumming)
-5---------------|3---------------|0---------------|0------------------------
-6---------------|5---------------|3---------------|3------------------------
-5---------------|4---------------|2---------------|1------------------------
-7---------------|5---------------|2---------------|2------------------------
-5---------------|3---------------|2---------------|2------------------------
-----------------|----------------|0---------------|0------------------------

Back to first bar for second verse/chorus
                                           
Second time do drum solo on the guitar (not tabbed here) :-) then repeat
chorus to end.



words and music 1978, FREE LOVE PUBLISHING, USA

Comments about this tab

No comments/corrections found. Add your own

Complimentary Christian Ringtones
Dadamobile and CGR have teamed up to bring your favorite Christian artists right to your phone. Sign up today and get 10 complementary ringtones!
Tab Country
Did you know CGR has a sister site w/ country guitar tabs? Well we do! Its called Tab Country. It has a great archive with a lot of country tabs.
Rockin Tabs
Are you looking for a site that has rock guitar tabs? Then Rockintabs.com is the place for you. It is a budding site with many rock guitar tabs. Submit your tab today.
Tab Gallery
Tab Gallery has a compilation of christian, rock, and country tabs all in one place. Come visit us.