Guitar Tabs
song title    band name

Join Us Today!

Don't strum alone...
be a part of the largest online Christian music community. Browse thousands of guitar tabs and chat w/ musicians like yourself.


It's Free!

This tab has not yet been rated for accuracy.Sorry, but you must be logged in to rate this tab.
Click here to log-in, or you can click here to register.
(Registration is free)

All songs owned by corresponding publishing company. If you make copies of any song on this website, be sure to report your usage to CCLI.
Author/Artist: Phil Keaggy
Title: Del's Bells
Album: Acoustic Sketches
Transcribed by: Phil Rose
Email: prose@ibm.net

This is a rough sketch, but should get you started on all the parts.
Play along with the CD to get the whole thing down...


h2  hammer on
p0  pull off
12^ harmonic, in this tab this is ALWAYS a right hand slap harmonic
/   slide up


This tune incorporates PK's right hand slapping technique;  above the tab
the / means hit with right hand index finger, x means hit with other  3
fingers of right hand (or, to do it correctly, cut off the top half of your
right middle finger, and only use the remaining two).  PK uses a rocking
motion to do this.  If you're uncoordinated, just use your index finger,
but it can get a bit tiring.  The x in the tab itself indicates the timing
of the right hand slap, not a mute. 

This tab just gives each part of the song;  At the end the general
arrangement is provided.

If tuned down half a step like PK usually does, Capo 3rd fret, else capo
2nd fret.
DADGBD tuning.

Section A
  /     / x /     / x /     / x /   / 
D---------------------------------------------------------------------------
B-------------------------------12^-7^--------------------------------------
G-------------------------------12^-7^--------------------------------------
D-------------------------------12^-7^--------------------------------------
A-0h2---x-x-2p0---x-x-0h2---x-x---------------------------------------------
D-0h2---x-x-2p0---x-x-0h2---x-x---------------------------------------------
       (1)                      (2)

(1) when re-entering this section from section B this is where you start
(2) again, these harmonic are created with right hand index finger slaps.
You can       slap at fret 19 instead of 7 if you like.  You need a
Langejans or an Olson to make this sound right though...


Section B
           
-4----------------------------------------------------------------------------
-----3\2----------------------------------------------------------------------
---4-----0h2---0--------------------------------------------------------------
-------------4---0h2---0------------------------------------------------------
---------------------4---0h2----h2--------------------------------------------
-----------------------------4p0h2--------------------------------------------
(3)

(3)  hey, nice lick...
                        

Section C
---------------------------------------------------------------------------
-5p0-3p0-------------------------------------------------------------------
---------0h2---------------------------------------------------------------
-------------4p0h4p0-------------------------------------------------------
---------------------0h2-5/7-----------------------------------------------
-------------------------5/7-----------------------------------------------
(4)                     (5)

(4) I've never seen PK play this live, so he may finger this (and other parts)
    differently.  There are a number of alternatives.  This was easiest to me.

(5) On the CD, the first time thru the 5 note on the lower string is not
heard,
    but I imagine that was just a mistake (sacrilege!!!). Its there the
second 
    time.                                                                   


Section D
 /   / x     / x       / x     / x     / x     / / (or something like that)
------------------------------------------------------------------------------
-----x-3-----x-3-------x-3-----x-3-----x-3-----x-3----------------------------
-----x-2p0---x-4p2p0---x-0h2---x-4p2p0-x-4p2p0-x-0h2--------------------------
-----x-4-----x-4-------x-4-----x-4-----x-4-----x-4----------------------------
-0----------------------------------------------------------------------------
-0----------------------------------------------------------------------------
              (6)          

(6) The ordering of these riffs may not be exact.  I don't have the CD with
me, but its the right notes...

Section E
------------------------------------------------------------------------------
-------------------------------------t7-p0-h3-t5-p3---------------------------
-------------------------------------------h2---------------------------------
-------------------------------------t7-p0-h4-t5-p4---------------------------
----------t5-------t7-p0-h2-t5-p0-h2------------------------------------------
-t5-p0-h2-t5-p0-h2----------t5------------------------------------------------
          (7)               (8)                  (9)  (10)


(7) & (8)  the first time, emphasize the the lower (D) string, second time
                                emphasize the higher (A) string.  

(9) when pulling off with the right hand, brush toward te low D string so
all the     strings are heard.

(10)  Just my favorite PK tapping riff of all time!!!
                                 
                    

Closing Chords.  These are the chords in the right order, but I'll leave it
to 
you to get the rhythm off the CD.  Its similar to The Reunion.  Sorry,
you'll also have to figure out the fade out sequence yourself, or just use
this for leading into another song.

--0---0----0---0---0---0----0---0---0----0----0---0---0---0---0---------------
--5---10---7---3---5---10---7---8---12---10---7---8---3---5---0---------------
--4---9----6---2---4---9----6---7---11---9----6---7---2---4---0---2-----------
--6---11---7---4---6---11---7---9---12---11---7---9---4---5---2---4-----------
--0---0----0---0---0---0----0---0---0----0----0---0---0---0---0---0-----------
--0---0----0---0---0---0----0---0---0----0----0---0---0---0---0---0-----------
                                                                              

Playing Order

A A A B A B A C D E, Repeat, then Closing
 

============================================================
>From prose@ibm.net Wed Apr 23 21:37:32 1997
Subject: alternate fingerings

Alternate fingerings with right hand tapping for Sections B & C.  These
should more closely follow what PK actually plays...

t is for right hand tap; (t5 means right hand tap on fret 5) any pulloffs
or slides directly following one of these is done with the right hand,
whereas any hammer-ons (like h3) are done with the left hand...

Section B
------------------------------------------------------------------------------
-t7p0h3-----------------------------------------------------------------------
--------t6p0h2----------------------------------------------------------------
--------------t4/5p0h2--------------------------------------------------------
-----------------------t4/5p0h2-----h2----------------------------------------
--------------------------------t4p0h2----------------------------------------
                                                                              

Section C
------------------------------------------------------------------------------
-t5p0h3-----------------------------------------------------------------------
--------t4p0h2----------------------------------------------------------------
---------------t4p0h4---------------------------------------------------------
----------------------t5p0h2-t5/7---------------------------------------------
-----------------------------t5/7---------------------------------------------

Comments about this tab

No comments/corrections found. Add your own

Complimentary Christian Ringtones
Dadamobile and CGR have teamed up to bring your favorite Christian artists right to your phone. Sign up today and get 10 complementary ringtones!
Tab Country
Did you know CGR has a sister site w/ country guitar tabs? Well we do! Its called Tab Country. It has a great archive with a lot of country tabs.
Rockin Tabs
Are you looking for a site that has rock guitar tabs? Then Rockintabs.com is the place for you. It is a budding site with many rock guitar tabs. Submit your tab today.
Tab Gallery
Tab Gallery has a compilation of christian, rock, and country tabs all in one place. Come visit us.