Guitar Tabs
song title    band name

Join Us Today!

Don't strum alone...
be a part of the largest online Christian music community. Browse thousands of guitar tabs and chat w/ musicians like yourself.


It's Free!

This tab has been rated a 4.67 out of 5 for accuracy. (3 votes)Sorry, but you must be logged in to rate this tab.
Click here to log-in, or you can click here to register.
(Registration is free)

All songs owned by corresponding publishing company. If you make copies of any song on this website, be sure to report your usage to CCLI.
Submitted by: Ooblar

Artist: Underoath
Song: To Whom It May Concern   P.M.....= Palm mute
P.M...x..x..= break palm mute/bu= bend up to sound the next fret 
                                              ex. 5bu7= bend fret on
                                              5 fret so it sounds like 
                                              fret 7/0_o
Intro:        Mid:
E[-----------[------8------------8----------]
B[-5~-5~--1~-[8-6-5---6-5-6~-6~1~-6-5-8-6-5-]
G[-----------[------------------------------]x2
D[-----------[------------------------------]
A[-----------[------------------------------]
D[-----------[------------------------------]

E[------8----------------------8---------------------------]
B[-8-6-5-6-5~-8-8-8-8-8-5h6p5~--6-5-8-6-5-8-8-8-8-8-5h6p5~-]
G[---------------------------------------------------------]repeat once
D[---------------------------------------------------------]
A[---------------------------------------------------------]
D[---------------------------------------------------------]

E[--------------------------------------------]
B[-8---6-5-----8-6-5-13-11-10~-8-6-5-13-11-10-]
G[--------------------------------------------]
D[---------3p0--------------------------------]
A[--------------------------------------------]
D[--------------------------------------------]

E[-------------------------]
B[-13-11-10-8-6-5b-rb-b-rb-]
G[-------------------------]
D[-------------------------]
A[-------------------------]
D[-------------------------]

E[-------------------------------------------------]
B[-6-6-6-6-6-6-6-6-5-5-5-5-5-5-5-5-6-6-6-6-6-6-6-6-]
G[-------------------------------------------------]x?
D[-------------------------------------------------]
A[-------------------------------------------------]
D[-------------------------------------------------]

E[---------------------------------------------]  [----]
B[-6-6-6-66-6-66-6-66666-8-8-8-88-8-88-8-88888-]x3[-6~-]Fade with this
G[---------------------------------------------]  [----]
D[---------------------------------------------]  [----]
A[---------------------------------------------]  [----]
D[---------------------------------------------]  [----]

E[-------000--------------------------------------]
B[-------666--------------------------------------]
G[--------------------4bu5--------P.M....x .....x-]
D[-7-3-0~----7-3-0-7~------7-3-0~----0-0-0~-0-0-0-]
A[-7-3-0~----7-3-0-7~------7-3-0~----0-0-0~-0-0-0-]
D[-7-3-0~----7-3-0-7~------7-3-0~----0-0-0~-0-0-0-]

E[------------------------------------------------]
B[------------------------------------------------]
G[--------------------------------------P.M....x.-]repeat once
D[-7-7-7-7-7-7-7-7-10-10-10-10-10-10-10-10-0-0-0--]
A[-7-7-7-7-7-7-7-7-10-10-10-10-10-10-10-10-0-0-0--]
D[-7-7-7-7-7-7-7-7-10-10-10-10-10-10-10-10-0-0-0--]

E[-----------------------------------------]
B[-----------------------------------------]
G[-----------------------------------------]
D[-10-----7-----15-----10-----7------17-19-]
A[-----------------------------------------]
D[-----------------------------------------]

Outro:
E[----------------8------------------8---]
B[-5~-5~-1~--8-6-5-6-5-6~---5~6-1~-5~--1-]
G[---------------------------------------]x4
D[---------------------------------------]
A[---------------------------------------]
D[---------------------------------------]

Though this world is pressured. remember our promised hope/ Ooblar 0_o

Comments about this tab

Ooblar - 2007-03-29

This Tab has all the right notes..... just some are in the wrong sequence.....if somthin doesn't sound right try re-aranging those notes.....
hope that clarrifys any misshaps


Ooblar - 2007-03-30

I recieved a message about the tab saying that it was utterly wrong....if you could give me some feed back that be great


Add a comment/correction

Complimentary Christian Ringtones
Dadamobile and CGR have teamed up to bring your favorite Christian artists right to your phone. Sign up today and get 10 complementary ringtones!
Tab Country
Did you know CGR has a sister site w/ country guitar tabs? Well we do! Its called Tab Country. It has a great archive with a lot of country tabs.
Rockin Tabs
Are you looking for a site that has rock guitar tabs? Then Rockintabs.com is the place for you. It is a budding site with many rock guitar tabs. Submit your tab today.
Tab Gallery
Tab Gallery has a compilation of christian, rock, and country tabs all in one place. Come visit us.