Guitar Tabs
song title    band name

Join Us Today!

Don't strum alone...
be a part of the largest online Christian music community. Browse thousands of guitar tabs and chat w/ musicians like yourself.


It's Free!

This tab has been rated a 5.00 out of 5 for accuracy. (1 vote)Sorry, but you must be logged in to rate this tab.
Click here to log-in, or you can click here to register.
(Registration is free)

All songs owned by corresponding publishing company. If you make copies of any song on this website, be sure to report your usage to CCLI.
Submitted by: Te eF Kay

Band:Fm Static 
Album:Critically Ashamed
Song:The Next Big Thing

Key:
/  =Slide Up
\  =Slide Down 
x  =Scratching
b  =Bend
r  =Return Bend
PM.=Palm Mute


Intro:Rythm Guitar(Part 1) 
G|-4-4-4-4-------------------------4-4-4-4-----------------------------|
D|-4-4-4-4-4-4-4-4-6-6-6-6-2-2-2-2-4-4-4-4-2-2-2-2-4-4-4-4-11-11-11-11-|
A|-2-2-2-2-4-4-4-4-6-6-6-6-2-2-2-2-2-2-2-2-2-2-2-2-4-4-4-4-11-11-11-11-|
D|---------4-4-4-4-6-6-6-6-2-2-2-2---------2-2-2-2-4-4-4-4-11-11-11-11-|
PM . . . . . . . . . . . . . . . . . . . . . . . . . . . . .  .  .  .

(Part 2)
G|-4--4--------------------4--4-------------------|
D|-4--4--4--4--6--6--2--2--4--4--4--4--6--6x-2x-2-|
A|-2--2--4--4--6--6--2--2--2--2--4--4--6--6x-2x-2-|2x let ring for a while 
D|-------4--4--6--6--2--2--------4--4--6--6x-2x-2-|   then do a pick scrape

Intro:Lead Guitar
E|-----14--12--11--12--11----------------14--12--11--12--11---------|
B|-12----------------------12/14\12--12----------------------12--12-|2x
G|------------------------------------------------------------------|

Verse:(same as Intro part 2 only without lead guitar)

Pre-Chorus:Rythm Guitar
G|-4--4--------------------4--4----------------xxxxxx-|
D|-4--4--4--4--6--6--2--2--4--4--4--4--6--6--2-xxxxxx-|
A|-2--2--4--4--6--6--2--2--2--2--4--4--6--6--2-xxxxxx-|
D|-------4--4--6--6--2--2--------4--4--6--6--2-xxxxxx-|

Chorus:Rythm Guitar(same as verse)

Chorus:Lead Guitar
E|-------------------14-------------------|  |----------------|
B|-16--12--14----12------14----16--12--14-|1x|-12-12-12-16-14-|
G|----------------------------------------|  |----------------|
/                                         \  |----------------|
..............Play this again..............1x|-12-16-14-11-12-|
                                             |----------------|

Verse 2:Rythm Guitar(or Acoustic)clean
G|-4------------|
D|-4----4-4-2-2-|
A|-2----4-4-2-2-|12x
D|------4-4-2-2-|

Lead Guitar:

E|-------------------|
B|-------------------|
G|-4--brbrbr--brbrbr-|

Verse 1 2x

Pre-Chorus

Chorus

Bridge:Rythm Guitar(play intro part 1)

Bridge:Lead Guitar

E|-11-------11-------11-------11-------11-12-11-|
B|----12-12----12-12----12-12----12-12----------|2x
G|----------------------------------------------|

after that do scratchings with the rythm guitar then back into chorus

Outro:let last chord ring from chorus then lead guitar does the bridge part
again and finishes with a long slide down.

Yay!done!by the way this doesnt have to be in drop d its just how I tabbed it.
Please leave comments and rate.

More FM Static Tabs To come!

Tabbed by Te eF Kay

Comments about this tab

Te eF Kay - 2007-03-25

good I didnt make any typing mistakes!;)


CDBongo - 2007-04-29

Cool, looks right, I'll try it in a little while.


Te eF Kay - 2007-04-29

Great!


punkrockabily52 - 2007-04-30

Hey amazing, like seriously everything was right.


Te eF Kay - 2007-05-01

:D yay!


Add a comment/correction

Complimentary Christian Ringtones
Dadamobile and CGR have teamed up to bring your favorite Christian artists right to your phone. Sign up today and get 10 complementary ringtones!
Tab Country
Did you know CGR has a sister site w/ country guitar tabs? Well we do! Its called Tab Country. It has a great archive with a lot of country tabs.
Rockin Tabs
Are you looking for a site that has rock guitar tabs? Then Rockintabs.com is the place for you. It is a budding site with many rock guitar tabs. Submit your tab today.
Tab Gallery
Tab Gallery has a compilation of christian, rock, and country tabs all in one place. Come visit us.