Guitar Tabs
song title    band name

Join Us Today!

Don't strum alone...
be a part of the largest online Christian music community. Browse thousands of guitar tabs and chat w/ musicians like yourself.


It's Free!

This tab has been rated a 4.33 out of 5 for accuracy. (3 votes)Sorry, but you must be logged in to rate this tab.
Click here to log-in, or you can click here to register.
(Registration is free)

All songs owned by corresponding publishing company. If you make copies of any song on this website, be sure to report your usage to CCLI.
Submitted by: xkennyx

Iv tabbed break free as best as i can... sounds pretty good to me

Intro & Verse Riff
e---------------------------------------------------------
B---------------------------------------------------------
G---------------------------------------------------------
D-------------------------------------4-4h6----------4-4h6b  Repeat As Needed
A----------------------------------5-5-5----5.5.5.5.--5---
E-2-2-2-2-2-2-2-2-2-2-2-2-2-2-2-2-------------------------


Pre Chorus.

e--------------------------------------------------------
B--------------------------------------------------------
G--------------------------------------------------------
D---------------------------------------4-4-6-6-4-4-4h6--
A---------------------------------------5-5-5-5-5-5-5-5--
E-2-2-2-2-2b-2b-2-2-2-2-2b-2b-2-2-2-2--------------------


Chorus:

A 			D				F#
There's no mistaking the truth, There's no mistaking its you
		  D
God Forever we'll get up and dance, get up and dance and praise you
A			 D				 F# 
There's no escaping your love, There's no mistaking your love
		       D
Across the world we'll get up and dance, get up and dance and praise you


Bridge:

E		F#	    D
Forever all our days we are holding on, holding on to
E          F#	   D
All your ways we are holding on holding on to
E	F#	 D     E              F#	 D
All you said you done, We are holding on to your love

Now we wil dance.

e--8-12-
B--9-9--
G--8-8--
D-------
A-------
E-------

So wont you break free, wont you break free 

Get up and dance, so wont you break free.  x4
							
In your love, love never ending.


Outro:
E--------------------------------
B--------------------------------
G--------------------------------
D--------------------------------
A--------------------------------
E-2-2-2-2-2-2-2-2-2-2-2-2-2-2-2-2





Thanks
Kenny

Comments about this tab

ghostalker - 2007-09-26

in the line ...
you've posted
*****
Now we wil dance.

e--8-12-
B--9-9--
G--8-8--
D-------
A-------
E-------
******
that should be
******
Now we wil dance.
A chord bridge2 part

e--9--12---------------------9--10
B--10-10----some variations--10-10
G--9--9----------------------9--9
D-------------------------------
A-------------------------------
E-------------------------------
******


Add a comment/correction

Complimentary Christian Ringtones
Dadamobile and CGR have teamed up to bring your favorite Christian artists right to your phone. Sign up today and get 10 complementary ringtones!
Tab Country
Did you know CGR has a sister site w/ country guitar tabs? Well we do! Its called Tab Country. It has a great archive with a lot of country tabs.
Rockin Tabs
Are you looking for a site that has rock guitar tabs? Then Rockintabs.com is the place for you. It is a budding site with many rock guitar tabs. Submit your tab today.
Tab Gallery
Tab Gallery has a compilation of christian, rock, and country tabs all in one place. Come visit us.