Guitar Tabs
song title    band name

Join Us Today!

Don't strum alone...
be a part of the largest online Christian music community. Browse thousands of guitar tabs and chat w/ musicians like yourself.


It's Free!

This tab has not yet been rated for accuracy.Sorry, but you must be logged in to rate this tab.
Click here to log-in, or you can click here to register.
(Registration is free)

All songs owned by corresponding publishing company. If you make copies of any song on this website, be sure to report your usage to CCLI.
Submitted by: catchfire185

Hey this is my first tab, so feel free to fix if it needs fixing!
PS, I didnt do the strumming, so just listen for it. Thanks!

Song: Faking My Own Suicide
Artist: Relient K
Album: Five Score And Seven Years Ago
Tabbed By: Tim P. (catchfire_185@hotmail.com)


Intro:
e--|------------------------------------------------------------------------
B--|------------------------------------------------------------------4-----
G--|------------------------------------------------------------------------
D--|---------------12----12-----9----5----7----4----9------7-----5----5-----
A--|---------------10 ----9-----7----3----5----2----7------5-----3----3-----
E--|-----------------------------------------------------------------------

Verse1/2/3:
e------------------------------------------------------------------------------
B------------------------------------------------------------------------------
G------------------------------------------------------------------------------
D-12------12---9----5---7-----9-----12-----12---9----5-------7---4-----9--7---5
A10------9----7----3---5-----7-----10-----9----7----3-------5---2-----7--5---3-

Chorus:
e--|------------------------||--------------------------||---------------------
B--|------------------------||--------------------------||---------------------
G--|------------------------||--------------------------||---------------------
D--|--12---12---9------5----||----------5-----7---------||--7---4--9---7--5---5
A--|--10----9---7------3----||------5---3-----5---------||--5---2--7---5--3---3
E--|------------------------||------3-------------------||---------------------

Bridge:
e--|------------------------------------------------------------|
B--|-----------------------------------------3------------------|
G--|-----4-----------------------------------3------------------|
D--|-----5------5------7----(x4)-------------0------------------|
A--|-----2------3------5----------------------------------------|
E--|-----------------------------------------3------------------|

Let me explain the two "||"s in the chorus.
 1st time around, play to the second "||" then repeat, 2nd time skip the chords
in the middle. 

Thanks for looking!!

Comments about this tab

No comments/corrections found. Add your own

Complimentary Christian Ringtones
Dadamobile and CGR have teamed up to bring your favorite Christian artists right to your phone. Sign up today and get 10 complementary ringtones!
Tab Country
Did you know CGR has a sister site w/ country guitar tabs? Well we do! Its called Tab Country. It has a great archive with a lot of country tabs.
Rockin Tabs
Are you looking for a site that has rock guitar tabs? Then Rockintabs.com is the place for you. It is a budding site with many rock guitar tabs. Submit your tab today.
Tab Gallery
Tab Gallery has a compilation of christian, rock, and country tabs all in one place. Come visit us.