Guitar Tabs
song title    band name

Join Us Today!

Don't strum alone...
be a part of the largest online Christian music community. Browse thousands of guitar tabs and chat w/ musicians like yourself.


It's Free!

This tab has not yet been rated for accuracy.Sorry, but you must be logged in to rate this tab.
Click here to log-in, or you can click here to register.
(Registration is free)

All songs owned by corresponding publishing company. If you make copies of any song on this website, be sure to report your usage to CCLI.
Submitted by: Andy C.

Title: One Trick Pony
Album: Coming Up To Breathe
Artist: MercyMe

This song is played on a steel guitar in the the key of Eb maj. or C min. If
you do not have a steel guitar you can play it on an acoustic guitar with a
pocket knife. You can play along by playing the C min. pentatonic scale:

e [-------------------------------8--11]
B [-------------------------8--11------]
G [------------------8--10-------------]
D [------------8--10-------------------]
A [------8--10-------------------------]
E [8--11-------------------------------]

The solo is:

e [-------------------------------------------------]
B [-------------------------------------------------]
G [------8----------10-8-------8--------------------]
D [8-10----10----8-------8-10----10--8--------------]
A [-------------------------------------10--8-------]
E [-------------------------------------------11/8/8]

repeat that then:

e [-----------------------------------]
B [-------11---------11---11-10-8-----]
G [8s----------8s-----------------10-8]
D [-----------------------------------]
A [-----------------------------------]
E [-----------------------------------]

Then you play the first part one more time. That's it. ENJOY!
God, bless.

P.S. Please comment. This is my first tab and I would like some feed back.

Comments about this tab

crain1 - 2007-03-12

Barry Groul actually plays this in an open tuning with a glass slide. Im not sure what tuning though.


Add a comment/correction

Complimentary Christian Ringtones
Dadamobile and CGR have teamed up to bring your favorite Christian artists right to your phone. Sign up today and get 10 complementary ringtones!
Tab Country
Did you know CGR has a sister site w/ country guitar tabs? Well we do! Its called Tab Country. It has a great archive with a lot of country tabs.
Rockin Tabs
Are you looking for a site that has rock guitar tabs? Then Rockintabs.com is the place for you. It is a budding site with many rock guitar tabs. Submit your tab today.
Tab Gallery
Tab Gallery has a compilation of christian, rock, and country tabs all in one place. Come visit us.