Guitar Tabs
song title    band name

Join Us Today!

Don't strum alone...
be a part of the largest online Christian music community. Browse thousands of guitar tabs and chat w/ musicians like yourself.


It's Free!

This tab has been rated a 5.00 out of 5 for accuracy. (1 vote)Sorry, but you must be logged in to rate this tab.
Click here to log-in, or you can click here to register.
(Registration is free)

All songs owned by corresponding publishing company. If you make copies of any song on this website, be sure to report your usage to CCLI.
Submitted by: MyersBAM723

Gravity
Shawn McDonald

< Capo 3 >

x = Slap guitar
h = Hammer On

Intro / Verse

e |------1--x-------x-------x-------x|
B |------1--x---1---x---0---x-------x|
G |-0h2--2--x---0---x---0---x-------x|
D |------0--x---2---x-------x---3---x|
A |---------x---0---x---3---x---3---x|
E |---------x-------x-------x---1---x|

Chorus

|-----x---x---------x-----x----------x----------x--------------x-------------x|
|-----x---x---------x-----x----------x----------x--------------x-------------x|
|-----x---x---------x-----x----------x----------x--------------x-------------x|
|--5--x---x------7--x--7--x-------3--x-------3--x----------3--x----------3-x|
|--5--x---x------7--x--7--x-------3--x-------3--x----------3--x----------3-x|
|--3--x---x--0h5-5--x--5--x0h1--1--x0h1--1--x0h1--1--1--x0h11--1-x|

Bridge

|--------------------------------------|
|--------------------------------------|
|--------------------------------------|
|-------7-----------5----------3---3---|
|-----7-----------5-----------3--------|
|---5-----5-----3-----3-----1----1-----|

I've played this with the "Live In Seattle" CD many times and it sounds good to me (^_^)y 
Only thing to look out for is in the verse/intro during the verse he doesn't do the hammer
on. Also for the bridge he does a little bit more finger picking near the end. Anyway please 
leave ya feedback cause this is my 1st tab! I should be posting a video on youtube soon 
so you can see it. Lastly I have to say....Shawn McDonald totally rocks!!! His music is so 
honest and real. Enjoy!!!


Comments about this tab

MyersBAM723 - 2007-02-24

Hey here is the link for the video of it

http://www.youtube.com/watch?v=8ypxFi0nF9E

Also the person running these tabs kinda messed it up, so here is what it should be for the Chorus

Chorus
|--5--x---x------7--x--7--x-------3--x-------3--x----------3--x---------3-x|
|--5--x---x------7--x--7--x-------3--x-------3--x----------3--x---------3-x|
|--3--x---x--0h5-5--x--5--x--0h1--1--x-0h1--1--x--0h1--1--1--x-0h11--1-x|


MyersBAM723 - 2007-02-24

Wow that really stunk (>_<) i'll post from where it started to mess up...

x-------3--x-------3--x-----------3--x----------3-x|
x-------3--x-------3--x-----------3--x----------3-x|
x--0h1--1--x--0h1--1--x--0h1--1--1--x--0h11--1-x|


Add a comment/correction

Complimentary Christian Ringtones
Dadamobile and CGR have teamed up to bring your favorite Christian artists right to your phone. Sign up today and get 10 complementary ringtones!
Tab Country
Did you know CGR has a sister site w/ country guitar tabs? Well we do! Its called Tab Country. It has a great archive with a lot of country tabs.
Rockin Tabs
Are you looking for a site that has rock guitar tabs? Then Rockintabs.com is the place for you. It is a budding site with many rock guitar tabs. Submit your tab today.
Tab Gallery
Tab Gallery has a compilation of christian, rock, and country tabs all in one place. Come visit us.