Guitar Tabs
song title    band name

Join Us Today!

Don't strum alone...
be a part of the largest online Christian music community. Browse thousands of guitar tabs and chat w/ musicians like yourself.


It's Free!

This tab has not yet been rated for accuracy.Sorry, but you must be logged in to rate this tab.
Click here to log-in, or you can click here to register.
(Registration is free)

All songs owned by corresponding publishing company. If you make copies of any song on this website, be sure to report your usage to CCLI.
Submitted by: julian777rocker

Oh! Emetophobia- Showbread


G, B, E not used. Drop D tuning.
Listen to song for rhythms.

E|-----------------------------------------------------------------------
B|----------------------------------------------------------------------
G|-----------------------------------------------------------------------|
D|-10-10-10--7----10-10-10--7----10-10-10--7----10-10-10--7------------
A|-10-10-10--7----10-10-10--7----10-10-10--7----10-10-10--7------------|
D|-10-10-10--7----10-10-10--7----10-10-10--7----10-10-10--7------------|

E|---------------------------------------------------------------------|
B|---------------------------------------------------------------------|
G|---------------------------------------------------------------------|
D|-7-7-7-7-7-7---12-12--10-10-10-10-10-10---12-12----------------------|
A|-7-7-7-7-7-7---12-12--10-10-10-10-10-10---12-12----------------------|
D|-7-7-7-7-7-7---12-12--10-10-10-10-10-10---12-12----------------------|
Repeat this two times, then

E|-------------------------------------------------------------------------
B|-------------------------------------------------------------------------
G|--------------------------------------------------------------------------
D|-7-x-7-x-7-x---12-12--10-x-10-x-10-x---12-12----------------------------
A|-7-x-7-x-7-x---12-12--10-x-10-x-10-x---12-12----------------------------
D|-7-x-7-x-7-x---12-12--10-x-10-x-10-x---12-12----------------------------
Repeat this twice also.

E|-----------------------------------------------------------------------
B|-----------------------------------------------------------------------|
G|-----------------------------------------------------------------------|
D|-12--11--9--7----12--10--5--9----12--10--9--7--9--5--4-----------------
A|-12--11--9--7----12--10--5--9----12--10--9--7--9--5--4-----------------
D|-12--11--9--7----12--10--5--9----12--10--9--7--9--5--4-----------------
Repeat each of these notes four times, except for the last three (the last " 
repeat those 8 times, 4 times, and 1 time respectively.

E|-------------------------------------------------------------------------|
B|-------------------------------------------------------------------------|
G|-------------------------------------------------------------------------|
D|-10-10-10--7-7----5-5-5-5--4---------------------------------------------|
A|-10-10-10--7-7----5-5-5-5--4---------------------------------------------
D|-10-10-10--7-7----5-5-5-5--4---------------------------------------------|
   ^Rpt this^ three times, before the "5-5-5-5--4--------------------------|

E|--------------------------------------------------------------------------|
B|--------------------------------------------------------------------------|
G|--------------------------------------------------------------------------|
D|-10-10-10--7----10-10-10--7----10-10-10--7----10-10-10--7-----------------|
A|-10-10-10--7----10-10-10--7----10-10-10--7----10-10-10--7-----------------|
D|-10-10-10--7----10-10-10--7----10-10-10--7----10-10-10--7-----------------|

E|--------------------------------------------------------------------------|
B|--------------------------------------------------------------------------|
G|--------------------------------------------------------------------------|
D|--12-12--7-7-7-7-7-7---12-12--10-10-10-10-10-10---12-12-------------------|
A|--12-12--7-7-7-7-7-7---12-12--10-10-10-10-10-10---12-12-------------------|
D|--12-12--7-7-7-7-7-7---12-12--10-10-10-10-10-10---12-12-------------------|
Repeat this two times, then


E|--------------------------------------------------------------------------|
B|--------------------------------------------------------------------------|
G|--------------------------------------------------------------------------|
D|--12-12--7-x-7-x-7-x---12-12--10-x-10-x-10-x---12-12----------------------|
A|--12-12--7-x-7-x-7-x---12-12--10-x-10-x-10-x---12-12----------------------|
D|--12-12--7-x-7-x-7-x---12-12--10-x-10-x-10-x---12-12----------------------|
Repeat this twice also.

E|--------------------------------------------------------------------------|
B|--------------------------------------------------------------------------|
G|--------------------------------------------------------------------------|
D|-12--11--9--7----12--10--5--9----12--10--9--7--9--5--4--------------------|
A|-12--11--9--7----12--10--5--9----12--10--9--7--9--5--4--------------------|
D|-12--11--9--7----12--10--5--9----12--10--9--7--9--5--4--------------------|
Repeat each of these notes four times, except for the last three (the last " 
repeat those 8 times, 4 times, and 1 time respectively

E|--------------------------------------------------------------------------|
B|--------------------------------------------------------------------------|
G|--------------------------------------------------------------------------|
D|-10-10-10--7----10-10-10--7----10-10-10--7----10-10-10--7-----------------|
A|-10-10-10--7----10-10-10--7----10-10-10--7----10-10-10--7-----------------|
D|-10-10-10--7----10-10-10--7----10-10-10--7----10-10-10--7-----------------|

E|---------------------------------------------------------------------------|
B|---------------------------------------------------------------------------|
G|---------------------------------------------------------------------------|
D|---------------------------------------------------------------------------|
A|-10V-10V-10V-10V-----------------------------------------------------------|
D|---------------------------------------------------------------------------|

E||
B|---------------------------------------------------------------------------|
G|---------------------------------------------------------------------------|
D|-4-4--7--4-4--7-4--4-7-4-7-4-7--4-4--7--4-4--7-4--10-9-7-------------------|
A|-4-4--7--4-4--7-4--4-7-4-7-4-7--4-4--7--4-4--7-4--10-9-7-------------------|
D|-4-4--7--4-4--7-4--4-7-4-7-4-7--4-4--7--4-4--7-4--10-9-7-------------------|
This was a little tricky, but I gave it my best shot.

E|---------------------------------------------------------------------------|
B|---------------------------------------------------------------------------|
G|---------------------------------------------------------------------------|
D|---------------------------------------------------------------------------|
A|---------------------------------------------------------------------------|
D|-10-4-9-4-7-4-4-4-4-4-4-4-4------------------------------------------------|
Repeat this four times.

E|------------------------------------------------------------------------|
B|------------------------------------------------------------------------|
G|------------------------------------------------------------------------|
D|-10-X-9-X-7-4-4-4-4-4-4-4-4---------------------------------------------|
A|-10-X-9-X-7-4-4-4-4-4-4-4-4---------------------------------------------|
D|-10-X-9-X-7-4-4-4-4-4-4-4-4---------------------------------------------|
Repeat this four times.

E|-------------------------------------------------------------------------|
B|-------------------------------------------------------------------------|
G|-------------------------------------------------------------------------|
D|-10-X-9-X-7-4-4-4-4-4-4-4-4----------------------------------------------|
A|-10-X-9-X-7-4-4-4-4-4-4-4-4----------------------------------------------|  
D|-10-X-9-X-7-4-4-4-4-4-4-4-4----------------------------------------------|
	
	        
X4 ( fourth time end on D|-7-|	
                        A|-7-|
                        D|-7-|
E|---------------------------------------------------------------|
B|---------------------------------------------------------------|
G|---------------------------------------------------------------|
D|-10-10-10--7----10-10-10--7----10-10-10--7----10-10-10--7------|
A|-10-10-10--7----10-10-10--7----10-10-10--7----10-10-10--7------|
D|-10-10-10--7----10-10-10--7----10-10-10--7----10-10-10--7------|

E|---------------------------------------------------------------|
B|---------------------------------------------------------------|
G|---------------------------------------------------------------|
D|-12--11--9--7----12--10--5--9----12--10--9--7--9--5--4---------|
A|-12--11--9--7----12--10--5--9----12--10--9--7--9--5--4---------|
D|-12--11--9--7----12--10--5--9----12--10--9--7--9--5--4---------|
Repeat each of these notes four times, except for the last three 
(the last " repeat those 8 times, 4 times, and 1 time respectively

E|----------------------------------------------------------------|
B|----------------------------------------------------------------|
G|----------------------------------------------------------------|
D|-10-10-10--7-7----5-5-5-5--4------------------------------------|
A|-10-10-10--7-7----5-5-5-5--4------------------------------------|
D|-10-10-10--7-7----5-5-5-5--4------------------------------------|
   ^Rpt this^ three times, before the 5-5-5-5--4------------------|

END

Email at kathypond7@msn.com

Comments about this tab

No comments/corrections found. Add your own

Complimentary Christian Ringtones
Dadamobile and CGR have teamed up to bring your favorite Christian artists right to your phone. Sign up today and get 10 complementary ringtones!
Tab Country
Did you know CGR has a sister site w/ country guitar tabs? Well we do! Its called Tab Country. It has a great archive with a lot of country tabs.
Rockin Tabs
Are you looking for a site that has rock guitar tabs? Then Rockintabs.com is the place for you. It is a budding site with many rock guitar tabs. Submit your tab today.
Tab Gallery
Tab Gallery has a compilation of christian, rock, and country tabs all in one place. Come visit us.