Guitar Tabs
song title    band name

Join Us Today!

Don't strum alone...
be a part of the largest online Christian music community. Browse thousands of guitar tabs and chat w/ musicians like yourself.


It's Free!

This tab has been rated a 5.00 out of 5 for accuracy. (3 votes)Sorry, but you must be logged in to rate this tab.
Click here to log-in, or you can click here to register.
(Registration is free)

All songs owned by corresponding publishing company. If you make copies of any song on this website, be sure to report your usage to CCLI.
Submitted by: sac346

Band: Falling Up
Song: Broken Heart
Album: Crashings
Year: 2004
Tuning: Drop D (DADGBE)

Intro:
E[------------------]
B[------------------]
G[------------------]
D[-0/4/6-8/8-2s6-88-]
A[-0/4/6-6/6-2s6-66-] (4X)
D[-0/4/6-6/6-2s6-66-]
pm ..................

Verse 1: ("in this moment synchronized inside...")
E[------------------]
B[------------------]
G[------------------]
D[-0/4/6-8/8-2s6-88-]
A[-0/4/6-6/6-2s6-66-] (7X)
D[-0/4/6-6/6-2s6-66-]
pm           ...
                         ^  ^
E[-----------------------------]
B[-----------------------------]
G[-----------------------------]
D[-0/4/6-8/8-2s6-88-4~-4/4/4/4-]
A[-0/4/6-6/6-2s6-66-4~-4/4/4/4-] 
D[-0/4/6-6/6-2s6-66-4~-4/4/4/4-]
pm           ...       .......

Chorus 1: ("Father, Healer...")
E[-------------------------------------------------------------------------]
B[-------------------------------------------------------------------------]
G[-444444x4-666666x6-88888888-66666666-444444x4-666666x6-88888888-66666666-]
D[-222222x2-444444x4-66666666-44444444-222222x2-444444x4-66666666-44444444-]
A[-222222x2-444444x4-66666666-44444444-222222x2-444444x4-66666666-44444444-]
D[-222222x2-444444x4-66666666-44444444-222222x2-444444x4-66666666-44444444-]

Post chorus:
E[------------------]
B[------------------]
G[------------------]
D[-0/4/6-8/8-2s6-88-]
A[-0/4/6-6/6-2s6-66-] (2X)
D[-0/4/6-6/6-2s6-66-]
pm ..................

verse 2: ("Theres a healing comming from the wind...")
E[------------------]
B[------------------]
G[------------------]
D[-0/4/6-8/8-2s6-88-]
A[-0/4/6-6/6-2s6-66-] (7X)
D[-0/4/6-6/6-2s6-66-]
pm           ...

E[------------------------]
B[------------------------]
G[------------------------]
D[-0/4/6-8/8-2s6-88-4~st0-]
A[-0/4/6-6/6-2s6-66-4~st0-]
D[-0/4/6-6/6-2s6-66-4~st0-]
pm           ...       

Chorus 2: (Father, Healer...")                                          ^^
E[---------------------------------------------------------------------------]
B[---------------------------------------------------------------------------]
G[-444444x4-666666x6-88888888-66666666-444444x4-666666x6-88888888-6666666666-]
D[-222222x2-444444x4-66666666-44444444-222222x2-444444x4-66666666-4444444444-]
A[-222222x2-444444x4-66666666-44444444-222222x2-444444x4-66666666-4444444444-]
D[-222222x2-444444x4-66666666-44444444-222222x2-444444x4-66666666-4444444444-]
pm                                                                      ....

Bridge:
E[-------------------------]
B[-------------------------]
G[----11-11----11-11-----8-]
D[-22--x--x-44--x--x-989-8-]
A[-22--9--9-44--9--9-666-6-] (2X)
D[-22-------44-------666---]
  ("you can hold...")
E[-------------------]
B[-------------------]
G[-------------------]
D[-22222222-66666666-]
A[-22222222-66666666-] (3X)
D[-22222222-66666666-]

E[-----------------------------------]
B[-----------------------------------]
G[-----------------------------------]
D[-22222222-66/6/6/666/6/6/6/6/6/6/6-]
A[-22222222-66/6/6/666/6/6/6/6/6/6/6-]
D[-22222222-66/6/6/666/6/6/6/6/6/6/6-]
pm           ....... ...............

Chorus 3: ("Falther Healer...")
E[-------------------------------------------------------------------------]
B[-------------------------------------------------------------------------]
G[-------------------88888888-66666666-444444x4-666666x6-88888888-66666666-]
D[-22222222-444444x4-66666666-44444444-222222x2-444444x4-66666666-44444444-]
A[-22222222-444444x4-66666666-44444444-222222x2-444444x4-66666666-44444444-]
D[-22222222-444444x4-66666666-44444444-222222x2-444444x4-66666666-44444444-

E[-------------------------------------]
B[-------------------------------------]
G[-444444x4-666666x6-88888888-666666666]
D[-222222x2-444444x4-66666666-44444444-]
A[-222222x2-444444x4-66666666-44444444-]
D[-222222x2-444444x4-66666666-44444444-]

E[------------------------------------------]
B[------------------------------------------]
G[------------------------------------------]
D[-22222222-44444444-66666666-44444444-12s0-]
A[-22222222-44444444-66666666-44444444-12s0-]
D[-22222222-44444444-66666666-44444444-12s0-]
pm ...............................

Ending:                              ^^
E[-------------------------------------------------------------------]
B[-------------------------------------------------------------------]
G[-------------------------------------------11-11----11-11-----8----]
D[-0/4/6-8/8-2s6-88-0/4/6-8/8-2s6-88-6666-22--x--x-44--x--x-989-8-2~-]
A[-0/4/6-6/6-2s6-66-0/4/6-6/6-2s6-66-6666-22--9--9-44--9--9-666-6-2~-]
D[-0/4/6-6/6-2s6-66-0/4/6-6/6-2s6-66-6666-22-------44-------666---2~-]
pm           ...              ...    .... 

Tab Legend
pm...: palm mute
~: hold note
/: eighth note
^: up stroke
: down stroke
s: slide
st: slide while puching whammy bar down
x : deaden strings
Thats it, i know that i already submitted a tab, but im 101% positive
that this ones dead on!. feel fre to leave comments and RATE the tab. i want
to see how i did.

Comments about this tab

sac346 - 2007-02-12

i listened to the song a few more time and found that at the end of the first verse, they use delay. instead of palm muting. however, if you don't have a delay pedal, palm muting sounds fine.


DotheDew88 - 2008-02-28

great tab im impressed but its not a guitar pedal that does that thing right before the chorus its the turn tables guy but if ur like me and dont have a turn tables dude lightly mute ur strings with ur left hand and strum it on the 4th fret. Totally great tab i have played this forever with a pretty rough tab but i love this song alot so Thx ^.^


Add a comment/correction

Complimentary Christian Ringtones
Dadamobile and CGR have teamed up to bring your favorite Christian artists right to your phone. Sign up today and get 10 complementary ringtones!
Tab Country
Did you know CGR has a sister site w/ country guitar tabs? Well we do! Its called Tab Country. It has a great archive with a lot of country tabs.
Rockin Tabs
Are you looking for a site that has rock guitar tabs? Then Rockintabs.com is the place for you. It is a budding site with many rock guitar tabs. Submit your tab today.
Tab Gallery
Tab Gallery has a compilation of christian, rock, and country tabs all in one place. Come visit us.