Guitar Tabs
song title    band name

Join Us Today!

Don't strum alone...
be a part of the largest online Christian music community. Browse thousands of guitar tabs and chat w/ musicians like yourself.


It's Free!

This tab has been rated a 3.00 out of 5 for accuracy. (1 vote)Sorry, but you must be logged in to rate this tab.
Click here to log-in, or you can click here to register.
(Registration is free)

All songs owned by corresponding publishing company. If you make copies of any song on this website, be sure to report your usage to CCLI.
Submitted by: YesusHristova

                                  STRONG TOWER
                             As recorded by Kutless
                       (From the 2005 Album STRONG TOWER)

Words and Music by Marc Byrd, Mark Lee, Jon Micah Sumrall, Aaron Sprinkle
Arranged by Lachlan Brown
Transcribed by Lachlan Brown

Gtr I (D A D G B E) - 'Electric Guitar - Lead'
Gtr II (D A D G B E) - 'Electric Guitar - Chords'
Gtr III (E A D G B E) - 'Acoustic Guitar - Steel String'

 Intro
  Q=80
 4/4
  Gtr I
|-----------------|-----------------|-----------------|----------4--4--2--2--||
|-4-4-4-4-5-5-0-0-|-2-2-2-2-2-2-2-2-|-4-4-4-4-5-5-0-0-|-2-2-2-2--------------||
|-----------------|-----------------|-----------------|----------------------||
|-----------------|-----------------|-----------------|----------------------||
|-----------------|-----------------|-----------------|----------------------||
|-----------------|-----------------|-----------------|----------------------||
|
| Gtr II
|-----------------|-----------------|-----------------|----------------------||
|-----------------|-----------------|-----------------|----------------------||
|-4-4---------9-9-|-----------------|-4-4---------9-9-|----------------------||
|-----4-4-7-7-----|-6-6-6-6-6-6-6-6-|-----4-4-7-7-----|-6-6-6-6S11-11-11-11--||
|-----------------|-----------------|-----------------|----------------------||
|-----------------|-----------------|-----------------|----------------------||


   Verse
||------------------------|-----------------------|
||o-4-4-4-4---5---5-0-0---|-2-2-2-2---2---2-2-2---|
||------------------------|-----------------------|
||------------------------|-----------------------|
||o-----------------------|-----------------------|
||------------------------|-----------------------|
|
||------------------------|-----------------------|
||o-----------------------|-----------------------|
||--4-4-------------9-9---|-----------------------|
||------4-4---7---7-------|-6-6-6-6---6---6-6-6---|
||o-----------------------|-----------------------|
||------------------------|-----------------------|
|
|   Gtr III
||--2---2-2-2-2-2-0-0-0-0-|-----------------------|
||o-2---2-2-2-2-2-0-0-0-0-|-----------------------|
||--4---4-4-4-4-4-2-2-2-2-|-6---6-6-6-6-6-6-6-6-6-|
||--4---4-4-4-4-4-2-2-2-2-|-6---6-6-6-6-6-6-6-6-6-|
||o-2---2-2-2-2-2-0-0-0-0-|-4---4-4-4-4-4-4-4-4-4-|
||------------------------|-----------------------|


|-----------------------|------------4----4--2--2------|
|-4-4-4-4---5---5-0-0---|-2-2-2-2----------------------|
|-----------------------|------------------------------|
|-----------------------|------------------------------|
|-----------------------|------------------------------|
|-----------------------|------------------------------|
|
|-----------------------|------------------------------|
|-----------------------|------------------------------|
|-4-4-------------9-9---|------------------------------|
|-----4-4---7---7-------|-6-6-6-6S==11---11-11-11------|
|-----------------------|------------------------------|
|-----------------------|------------------------------|
|
|-2---2-2-2-2-2-0-0-0-0-|------------------------------|
|-2---2-2-2-2-2-0-0-0-0-|------------------------------|
|-4---4-4-4-4-4-2-2-2-2-|-6---6-6-6--6-6--6--6--6-6----|
|-4---4-4-4-4-4-2-2-2-2-|-6---6-6-6--6-6--6--6--6-6----|
|-2---2-2-2-2-2-0-0-0-0-|-4---4-4-4--4-4--4--4--4-4----|
|-----------------------|------------------------------|


|-----------------------|-----------------------|
|-4-4-4-4---5---5-0-0---|-2-2-2-2---2---2-2-2---|
|-----------------------|-----------------------|
|-----------------------|-----------------------|
|-----------------------|-----------------------|
|-----------------------|-----------------------|
|
|-----------------------|-----------------------|
|-----------------------|-----------------------|
|-4-4-------------9-9---|-----------------------|
|-----4-4---7---7-------|-6-6-6-6---6---6-6-6---|
|-----------------------|-----------------------|
|-----------------------|-----------------------|
|
|-2---2-2-2-2-2-0-0-0-0-|-----------------------|
|-2---2-2-2-2-2-0-0-0-0-|-----------------------|
|-4---4-4-4-4-4-2-2-2-2-|-6---6-6-6-6-6-6-6-6-6-|
|-4---4-4-4-4-4-2-2-2-2-|-6---6-6-6-6-6-6-6-6-6-|
|-2---2-2-2-2-2-0-0-0-0-|-4---4-4-4-4-4-4-4-4-4-|
|-----------------------|-----------------------|


|-----------------------|------------4----4--2--2---||
|-4-4-4-4---5---5-0-0---|-2-2-2-2-------------------||
|-----------------------|---------------------------||
|-----------------------|---------------------------||
|-----------------------|---------------------------||
|-----------------------|---------------------------||
|
|-----------------------|---------------------------||
|-----------------------|---------------------------||
|-4-4-------------9-9---|---------------------------||
|-----4-4---7---7-------|-6-6-6-6S==11---11-11-11---||
|-----------------------|---------------------------||
|-----------------------|---------------------------||
|
|-2---2-2-2-2-2-0-0-0-0-|---------------------------||
|-2---2-2-2-2-2-0-0-0-0-|---------------------------||
|-4---4-4-4-4-4-2-2-2-2-|-6---6-6-6--6-6--6--6--6-6-||
|-4---4-4-4-4-4-2-2-2-2-|-6---6-6-6--6-6--6--6--6-6-||
|-2---2-2-2-2-2-0-0-0-0-|-4---4-4-4--4-4--4--4--4-4-||
|-----------------------|---------------------------||


 Pre-Chorus
|-2-2-2-2-2-2S5-5-|-0-0-0-0-0-0S4-4-|-2-2-2-2-2-2S5-5-|-0-0-0-0-0----||
|-----------------|-----------------|-----------------|--------------||
|-----------------|-----------------|-----------------|--------------||
|-----------------|-----------------|-----------------|--------------||
|-----------------|-----------------|-----------------|--------------||
|-----------------|-----------------|-----------------|--------------||
|
| PM------------------------------------------------------------|
|-----------------|-----------------|-----------------|--------------||
|-----------------|-----------------|-----------------|--------------||
|-----------------|-----------------|-----------------|--------------||
|-4-4-4-4-4-4-4-4-|-7-7-7-7-7-7-7-7-|-4-4-4-4-4-4-4-4-|-7-7-7-7-7----||
|-4-4-4-4-4-4-4-4-|-7-7-7-7-7-7-7-7-|-4-4-4-4-4-4-4-4-|-7-7-7-7-7----||
|-4-4-4-4-4-4-4-4-|-7-7-7-7-7-7-7-7-|-4-4-4-4-4-4-4-4-|-7-7-7-7-7----||
|
|-2-2-2-2-2-2-2-2-|-0-0-0-0-0-0-0-0-|-2-2-2-2-2-2-2-2-|-0-0-0-0-0----||
|-2-2-2-2-2-2-2-2-|-0-0-0-0-0-0-0-0-|-2-2-2-2-2-2-2-2-|-0-0-0-0-0----||
|-2-2-2-2-2-2-2-2-|-2-2-2-2-2-2-2-2-|-2-2-2-2-2-2-2-2-|-2-2-2-2-2----||
|-4-4-4-4-4-4-4-4-|-2-2-2-2-2-2-2-2-|-4-4-4-4-4-4-4-4-|-2-2-2-2-2----||
|-4-4-4-4-4-4-4-4-|-0-0-0-0-0-0-0-0-|-4-4-4-4-4-4-4-4-|-0-0-0-0-0----||
|-2-2-2-2-2-2-2-2-|-----------------|-2-2-2-2-2-2-2-2-|--------------||


 Chorus
|-4-4-4-4-4-4-4h5p4-|--2S4-4-4-4-4-4-4h5p4-|
|-------------------|----------------------|
|-------------------|----------------------|
|-------------------|----------------------|
|-------------------|----------------------|
|-------------------|----------------------|
|
|-------------------|----------------------|
|-------------------|----------------------|
|-------------------|----------------------|
|-2-----------------|-11-------------------|
|-2-----------------|-11-------------------|
|-2-----------------|-11-------------------|
|
|-0-0-0-0-0-0-0---0-|----------------------|
|-0-0-0-0-0-0-0---0-|----------------------|
|-1-1-1-1-1-1-1---1-|--6---6-6-6-6-6-6---6-|
|-2-2-2-2-2-2-2---2-|--6---6-6-6-6-6-6---6-|
|-2-2-2-2-2-2-2---2-|--4---4-4-4-4-4-4---4-|
|-0-0-0-0-0-0-0---0-|----------------------|


|-4p0-0-0-0-0-0-0-4-|-4p0-0-0-0-0-0-2-2--|
|-------------------|--------------------|
|-------------------|--------------------|
|-------------------|--------------------|
|-------------------|--------------------|
|-------------------|--------------------|
|
|-------------------|--------------------|
|-------------------|--------------------|
|-------------------|--------------------|
|-7-----------------|-7------------------|
|-7-----------------|-7------------------|
|-7-----------------|-7------------------|
|
|-0---0-0-0-0-0-0-0-|-0---0-0-0-0-0-0-0--|
|-0---0-0-0-0-0-0-0-|-0---0-0-0-0-0-0-0--|
|-2---2-2-2-2-2-2-2-|-2---2-2-2-2-2-2-2--|
|-2---2-2-2-2-2-2-2-|-2---2-2-2-2-2-2-2--|
|-0---0-0-0-0-0-0-0-|-0---0-0-0-0-0-0-0--|
|-------------------|--------------------|


|-4-4-4-4-4-4-4h5p4-|--2S4-4-4-4-4-4-4h5p4-|
|-------------------|----------------------|
|-------------------|----------------------|
|-------------------|----------------------|
|-------------------|----------------------|
|-------------------|----------------------|
|
|-------------------|----------------------|
|-------------------|----------------------|
|-------------------|----------------------|
|-2-----------------|-11-------------------|
|-2-----------------|-11-------------------|
|-2-----------------|-11-------------------|
|
|-0-0-0-0-0-0-0---0-|----------------------|
|-0-0-0-0-0-0-0---0-|----------------------|
|-1-1-1-1-1-1-1---1-|--6---6-6-6-6-6-6---6-|
|-2-2-2-2-2-2-2---2-|--6---6-6-6-6-6-6---6-|
|-2-2-2-2-2-2-2---2-|--4---4-4-4-4-4-4---4-|
|-0-0-0-0-0-0-0---0-|----------------------|


                                        1.
|-4p0-0-0-0-0-0-0-0-|-2-2-2-2--4--4--0-|-(0)-----||
|-------------------|------------------|--------o||
|-------------------|------------------|---------||
|-------------------|------------------|---------||
|-------------------|------------------|--------o||
|-------------------|------------------|---------||
|
|-------------------|------------------|---------||
|-------------------|------------------|--------o||
|-------------------|------------------|---------||
|-7-----------------|-9---9---11-11--7-|-(7)-----||
|-7-----------------|-9---9---11-11--7-|-(7)----o||
|-7-----------------|-9---9---11-11--7-|-(7)-----||
|
|-0---0-0-0-0-0-0-0-|-2-2-2-2--------0-|-(0)-----||
|-0---0-0-0-0-0-0-0-|-2-2-2-2--------0-|-(0)----o||
|-2---2-2-2-2-2-2-2-|-4-4-4-4--6--6--2-|-(2)-----||
|-2---2-2-2-2-2-2-2-|-4-4-4-4--6--6--2-|-(2)-----||
|-0---0-0-0-0-0-0-0-|-2-2-2-2--4--4--0-|-(0)----o||
|-------------------|------------------|---------||


 Breakdown
  2.
|-(0)--0-0-0-0-0-0-|-2-2-2-2--4--4--0-|
|------------------|------------------|
|------------------|------------------|
|------------------|------------------|
|------------------|------------------|
|------------------|------------------|
|
|------------------|------------------|
|------------------|------------------|
|------------------|------------------|
|-(7)--7-7-7-7-7-7-|-9-9-9-9-11-11--7-|
|-(7)--7-7-7-7-7-7-|-9-9-9-9-11-11--7-|
|-(7)--7-7-7-7-7-7-|-9-9-9-9-11-11--7-|
|
|-(0)--0-0-0-0-0-0-|-2-2-2-2--------0-|
|-(0)--0-0-0-0-0-0-|-2-2-2-2--------0-|
|-(2)--2-2-2-2-2-2-|-4-4-4-4--6--6--2-|
|-(2)--2-2-2-2-2-2-|-4-4-4-4--6--6--2-|
|-(0)--0-0-0-0-0-0-|-2-2-2-2--4--4--0-|
|------------------|------------------|


|-(0)--0-0-0-0-0-0-|-2-2-2-2--4--4--0-|-(0)----||
|------------------|------------------|--------||
|------------------|------------------|--------||
|------------------|------------------|--------||
|------------------|------------------|--------||
|------------------|------------------|--------||
|
|------------------|------------------|--------||
|------------------|------------------|--------||
|------------------|------------------|--------||
|-(7)--7-7-7-7-7-7-|-9-9-9-9-11-11--7-|-(7)----||
|-(7)--7-7-7-7-7-7-|-9-9-9-9-11-11--7-|-(7)----||
|-(7)--7-7-7-7-7-7-|-9-9-9-9-11-11--7-|-(7)----||
|
|-(0)--0-0-0-0-0-0-|-2-2-2-2--------0-|-(0)----||
|-(0)--0-0-0-0-0-0-|-2-2-2-2--------0-|-(0)----||
|-(2)--2-2-2-2-2-2-|-4-4-4-4--6--6--2-|-(2)----||
|-(2)--2-2-2-2-2-2-|-4-4-4-4--6--6--2-|-(2)----||
|-(0)--0-0-0-0-0-0-|-2-2-2-2--4--4--0-|-(0)----||
|------------------|------------------|--------||


 Guitar Break
|---------|---------|---------|-----12----||
|---------|---------|---------|-----10----||
|---------|---------|---------|------9----||
|---------|---------|---------|-----------||
|---------|---------|---------|-----------||
|---------|---------|---------|-----------||
|
|---------|---------|---------|-----------||
|---------|---------|---------|-----------||
|---------|---------|---------|-----------||
|---------|---------|---------|------7----||
|---------|---------|---------|------7----||
|---------|---------|---------|------7----||
|
|---------|---------|---------|------0----||
|---------|---------|---------|------0----||
|---------|---------|---------|------2----||
|---------|---------|---------|------2----||
|---------|---------|---------|------0----||
|---------|---------|---------|-----------||


 Out-Chorus
|-4-4-4-4-4-4-4h5p4-|--2S4-4-4-4-4-4-4h5p4-|
|-------------------|----------------------|
|-------------------|----------------------|
|-------------------|----------------------|
|-------------------|----------------------|
|-------------------|----------------------|
|
|-------------------|----------------------|
|-------------------|----------------------|
|-------------------|----------------------|
|-2-----------------|-11-------------------|
|-2-----------------|-11-------------------|
|-2-----------------|-11-------------------|
|
|-0-0-0-0-0-0-0---0-|----------------------|
|-0-0-0-0-0-0-0---0-|----------------------|
|-1-1-1-1-1-1-1---1-|--6---6-6-6-6-6-6---6-|
|-2-2-2-2-2-2-2---2-|--6---6-6-6-6-6-6---6-|
|-2-2-2-2-2-2-2---2-|--4---4-4-4-4-4-4---4-|
|-0-0-0-0-0-0-0---0-|----------------------|


|-4p0-0-0-0-0-0-0-4-|-4p0-0-0-0-0-0-2-2--|
|-------------------|--------------------|
|-------------------|--------------------|
|-------------------|--------------------|
|-------------------|--------------------|
|-------------------|--------------------|
|
|-------------------|--------------------|
|-------------------|--------------------|
|-------------------|--------------------|
|-7-----------------|-7------------------|
|-7-----------------|-7------------------|
|-7-----------------|-7------------------|
|
|-0---0-0-0-0-0-0-0-|-0---0-0-0-0-0-0-0--|
|-0---0-0-0-0-0-0-0-|-0---0-0-0-0-0-0-0--|
|-2---2-2-2-2-2-2-2-|-2---2-2-2-2-2-2-2--|
|-2---2-2-2-2-2-2-2-|-2---2-2-2-2-2-2-2--|
|-0---0-0-0-0-0-0-0-|-0---0-0-0-0-0-0-0--|
|-------------------|--------------------|


|-4-4-4-4-4-4-4h5p4-|--2S4-4-4-4-4-4-4h5p4-|
|-------------------|----------------------|
|-------------------|----------------------|
|-------------------|----------------------|
|-------------------|----------------------|
|-------------------|----------------------|
|
|-------------------|----------------------|
|-------------------|----------------------|
|-------------------|----------------------|
|-2-----------------|-11-------------------|
|-2-----------------|-11-------------------|
|-2-----------------|-11-------------------|
|
|-0-0-0-0-0-0-0---0-|----------------------|
|-0-0-0-0-0-0-0---0-|----------------------|
|-1-1-1-1-1-1-1---1-|--6---6-6-6-6-6-6---6-|
|-2-2-2-2-2-2-2---2-|--6---6-6-6-6-6-6---6-|
|-2-2-2-2-2-2-2---2-|--4---4-4-4-4-4-4---4-|
|-0-0-0-0-0-0-0---0-|----------------------|


|-4p0-0-0-0-0-0-0-4-|-4p0-0-0-0-0-0-2-2--|
|-------------------|--------------------|
|-------------------|--------------------|
|-------------------|--------------------|
|-------------------|--------------------|
|-------------------|--------------------|
|
|-------------------|--------------------|
|-------------------|--------------------|
|-------------------|--------------------|
|-7-----------------|-7------------------|
|-7-----------------|-7------------------|
|-7-----------------|-7------------------|
|
|-0---0-0-0-0-0-0-0-|-0---0-0-0-0-0-0-0--|
|-0---0-0-0-0-0-0-0-|-0---0-0-0-0-0-0-0--|
|-2---2-2-2-2-2-2-2-|-2---2-2-2-2-2-2-2--|
|-2---2-2-2-2-2-2-2-|-2---2-2-2-2-2-2-2--|
|-0---0-0-0-0-0-0-0-|-0---0-0-0-0-0-0-0--|
|-------------------|--------------------|


|-4-4-4-4-4-4-4h5p4-|--2S4-4-4-4-4-4-4h5p4-|
|-------------------|----------------------|
|-------------------|----------------------|
|-------------------|----------------------|
|-------------------|----------------------|
|-------------------|----------------------|
|
|-------------------|----------------------|
|-------------------|----------------------|
|-------------------|----------------------|
|-2-----------------|-11-------------------|
|-2-----------------|-11-------------------|
|-2-----------------|-11-------------------|
|
|-0-0-0-0-0-0-0---0-|----------------------|
|-0-0-0-0-0-0-0---0-|----------------------|
|-1-1-1-1-1-1-1---1-|--6---6-6-6-6-6-6---6-|
|-2-2-2-2-2-2-2---2-|--6---6-6-6-6-6-6---6-|
|-2-2-2-2-2-2-2---2-|--4---4-4-4-4-4-4---4-|
|-0-0-0-0-0-0-0---0-|----------------------|


|-4p0-0-0-0-0-0-0-0-|-2-2-2-2--4--4--0-|--0--0-0-0-0-0-0-0---|
|-------------------|------------------|---------------------|
|-------------------|------------------|---------------------|
|-------------------|------------------|---------------------|
|-------------------|------------------|---------------------|
|-------------------|------------------|---------------------|
|
|-------------------|------------------|---------------------|
|-------------------|------------------|---------------------|
|-------------------|------------------|---------------------|
|-7-----------------|-9---9---11-11--7-|--7--7-7-7-7-7-7-7---|
|-7-----------------|-9---9---11-11--7-|--7--7-7-7-7-7-7-7---|
|-7-----------------|-9---9---11-11--7-|--7--7-7-7-7-7-7-7---|
|
|-0---0-0-0-0-0-0-0-|-2-2-2-2--------0-|-(0)-0-0-0-0-0-0-0---|
|-0---0-0-0-0-0-0-0-|-2-2-2-2--------0-|-(0)-0-0-0-0-0-0-0---|
|-2---2-2-2-2-2-2-2-|-4-4-4-4--6--6--2-|-(2)-2-2-2-2-2-2-2---|
|-2---2-2-2-2-2-2-2-|-4-4-4-4--6--6--2-|-(2)-2-2-2-2-2-2-2---|
|-0---0-0-0-0-0-0-0-|-2-2-2-2--4--4--0-|-(0)-0-0-0-0-0-0-0---|
|-------------------|------------------|---------------------|


|-2-2-2-2--4--4--0-|-(0)--------|-(0)----*|
|------------------|------------|--------*|
|------------------|------------|--------*|
|------------------|------------|--------*|
|------------------|------------|--------*|
|------------------|------------|--------*|
|
|------------------|------------|--------*|
|------------------|------------|--------*|
|------------------|------------|--------*|
|-9---9---11-11--7-|-(7)--------|-(7)----*|
|-9---9---11-11--7-|-(7)--------|-(7)----*|
|-9---9---11-11--7-|-(7)--------|-(7)----*|
|
|-2-2-2-2--------0-|-(0)--------|-(0)----*|
|-2-2-2-2--------0-|-(0)--------|-(0)----*|
|-4-4-4-4--6--6--2-|-(2)--------|-(2)----*|
|-4-4-4-4--6--6--2-|-(2)--------|-(2)----*|
|-2-2-2-2--4--4--0-|-(0)--------|-(0)----*|
|------------------|------------|--------*|



***************************************************
* Generated using Power Tab Editor by Brad Larsen *
*       http://powertab.guitarnetwork.org         * 
***************************************************

Okay, so I've had a look at all the other tabs people have up for this song
and many of them are quite good. But I don't think anyone has tabbed both of 
the Electric Guitar parts for the intro together, nor have they done the Lead 
part for the Pre-Chorus and Chorus. So this is a complete tab with all three 
guitar parts, and I must say, I think its pretty good for a drummer to have 
done!

I'm also going to put a bass tab up that includes the violin part if anyone's
interested.

Yours in JC, Lachy

Comments about this tab

sac346 - 2007-03-21

This song is in Drop C#. I'm going to tab this and fix everything


Add a comment/correction

Complimentary Christian Ringtones
Dadamobile and CGR have teamed up to bring your favorite Christian artists right to your phone. Sign up today and get 10 complementary ringtones!
Tab Country
Did you know CGR has a sister site w/ country guitar tabs? Well we do! Its called Tab Country. It has a great archive with a lot of country tabs.
Rockin Tabs
Are you looking for a site that has rock guitar tabs? Then Rockintabs.com is the place for you. It is a budding site with many rock guitar tabs. Submit your tab today.
Tab Gallery
Tab Gallery has a compilation of christian, rock, and country tabs all in one place. Come visit us.