Guitar Tabs
song title    band name

Join Us Today!

Don't strum alone...
be a part of the largest online Christian music community. Browse thousands of guitar tabs and chat w/ musicians like yourself.


It's Free!

This tab has been rated a 5.00 out of 5 for accuracy. (1 vote)Sorry, but you must be logged in to rate this tab.
Click here to log-in, or you can click here to register.
(Registration is free)

All songs owned by corresponding publishing company. If you make copies of any song on this website, be sure to report your usage to CCLI.
Submitted by: nbfan

Song: Fireproof
Artist: Pillar
Album: Fireproof

I played all the other Fireproof tabs here, and all were good but just a little
off. I will admit this probably isnt perfect, but its the best Ive got. 

Intro:(w/delay pedal, if you dont have one just play each section 3x)
e-----------------------
b-----------------------
g-----------------------
d-----------------------
a-5---5---5---5---------
d-0---2---3---5---------

When Rob starts singing, play this 16 times:
e-------------------------------
b-------------------------------
g-------------------------------
d------0-------0------0------0--
a-------------------------------
d--00-0-0-22-2--0-33-3-0-55-5-0-

...no matter how you try...
e-------------------------
b-------------------------
g-------------------------
d--0-000-2-222-3-333-5-555
a--0-000-2-222-3-333-5-555
d--0-000-2-222-3-333-5-555 2x

Chorus:
e---------------------------
b---------------------------
g---------------------------
d---------------------------
a---------------------------
d--0~0-13-0-13-0~-13-0-13-0~

e--------------
b--------------
g--------------
d--8-888-5-555-
a--8-888-5-555-
d--8-888-5-555- 2x

on the third time its the same except that instead of the bottom you 
play this:
e------------------------
b------------------------
g------------------------
d------------------------
a------------------------
d--8888-55-88-5555-33-55-

e-----------------------
b-----------------------
g-----------------------
d-----------------------
a-5---5---5---5---------
d-0---2---3---5---------

between the end of the chorus and the beginning of the verse you
play the intro notes again(delay pedal or three times each again):
e-----------------------
b-----------------------
g-----------------------
d-----------------------
a-5---5---5---5---------
d-0---2---3---5---------

Verse:
...now you know what Im all about...
e-------------------------------
b-------------------------------
g-------------------------------
d------0-------0------0------0--
a-------------------------------
d--00-0-0-22-2--0-33-3-0-55-5-0- 16x

...my time to rise...
e-------------------------
b-------------------------
g-------------------------
d--0-000-2-222-3-333-5-555
a--0-000-2-222-3-333-5-555
d--0-000-2-222-3-333-5-555 2x

Then play the chorus again.

Bridge: I dont know the exact note he plays, but this is how I play it,
e----------------------------
b----------------------------
g----------------------------
d-00-00--55-55--33-33--88-88-
a-00-00--55-55--33-33--88-88-
d-00-00--55-55--33-33--88-88- 6x (first two times are palm mutes

then, when the guitar is playing alone for 2 seconds, play this again:
e---------------------------
b---------------------------
g---------------------------
d---------------------------
a---------------------------
d--0~0-13-0-13-0~-13-0-13-0~

after that,
e--------------
b--------------
g--------------
d--8-888-5-5-5-
a--8-888-5-5-5-
d--8-888-5-5-5-

then play chorus until the end.

Enjoy!

tab by teh_n00bfan

I also love unicorns, pink bunnies, and long walks...

Comments about this tab

No comments/corrections found. Add your own

Complimentary Christian Ringtones
Dadamobile and CGR have teamed up to bring your favorite Christian artists right to your phone. Sign up today and get 10 complementary ringtones!
Tab Country
Did you know CGR has a sister site w/ country guitar tabs? Well we do! Its called Tab Country. It has a great archive with a lot of country tabs.
Rockin Tabs
Are you looking for a site that has rock guitar tabs? Then Rockintabs.com is the place for you. It is a budding site with many rock guitar tabs. Submit your tab today.
Tab Gallery
Tab Gallery has a compilation of christian, rock, and country tabs all in one place. Come visit us.