Guitar Tabs
song title    band name

Join Us Today!

Don't strum alone...
be a part of the largest online Christian music community. Browse thousands of guitar tabs and chat w/ musicians like yourself.


It's Free!

This tab has been rated a 5.00 out of 5 for accuracy. (1 vote)Sorry, but you must be logged in to rate this tab.
Click here to log-in, or you can click here to register.
(Registration is free)

All songs owned by corresponding publishing company. If you make copies of any song on this website, be sure to report your usage to CCLI.
Submitted by: wpasg

Ok. Ive seen this one tabbed out a few times, but its not right. So here goes. 

These are the right chords. Listen to the rhythms to make sure youve got it right.

Drop D tuning

The song starts with a resonating D (5th fret, A string).


Intro (repeat 2x) :

e-------------------------------------------------------------------------------------
B-------------------------------------------------------------------------------------
G-------------------------------------------------------------------------------------
D-------------------------------------------------------------------------------------
A--3---0---3---5---3---0---3---5----3---0p---3---0---3---5---3---0---3---5----3---0p
D--3---0---3---5---3---0---3---5----3---0p---3---0---3---5---3---0---3---5----3---0p

e---------------------------------------------------|
B---------------------------------------------------|
G---------------------------------------------------|
D---------------------------------------------------|
A--3---0---3---5---3---0---3---5---0---3---4---5---|
D--3---0---3---5---3---0---3---5---0---3---4---5---|

Verse (repeat 3x):

e-----------------------------------------------------|
B-----------------------------------------------------|
G---------------------7---7---------------------------|
D------------7---7----6---6----------5---5---5---5---|
A------------5---5----5---5----------3---3---2---2---|
D----0p-0p--------------------0p-0p------------------|

Phrase between Verse 1 and Verse 2:

e---------------------------|
B---------------------------|
G---------------------------|
D---------------------------|
A---3---5---0---3---4---5---|
D---3---5---0---3---4---5---|

Repeat Verse

Phrase between Verse 2 and Chorus:

e----------|
B----------|
G----------|
D----------|
A--3---5---|
D--3---5---|

Chorus:

e--------------------------------------------------------------------------------|
B--------------------------------------------------------------------------------|
G-------------------------------------------------------------------------------|
D--------------------5---7--------------------5---5----------------5---5---3----|
A---0---3---5--------3---5---0---3---5--------3---2---0---3---5---3---2---1----|
D---0---3---5---0p-----------0---3---5---0p-----------0---3---5----------------|

Repeat Intro phrase once

Verse

Chorus

Bridge:

e-------------------|
B-------------------|
G-------------------|
D-------------------|
A---3---5---3---5---|
D---3---5---3---5---|

Play the chorus line underneath the solo, which is really just noodling on these few notes with
a couple of passing tones in D minor:

e------------------15b17----|
B-------------15------------|
G----12b14-----------------|
D---------------------------|
A---------------------------|
D---------------------------|

Chorus

Intro


Any questions, email me. Theres a 2nd guitar part (just some stunt guitar stuff) that I havent
tried to learn. If you know it, please feel free to add it. Other than that, this TAB is 100% correct.

Comments about this tab

No comments/corrections found. Add your own

Complimentary Christian Ringtones
Dadamobile and CGR have teamed up to bring your favorite Christian artists right to your phone. Sign up today and get 10 complementary ringtones!
Tab Country
Did you know CGR has a sister site w/ country guitar tabs? Well we do! Its called Tab Country. It has a great archive with a lot of country tabs.
Rockin Tabs
Are you looking for a site that has rock guitar tabs? Then Rockintabs.com is the place for you. It is a budding site with many rock guitar tabs. Submit your tab today.
Tab Gallery
Tab Gallery has a compilation of christian, rock, and country tabs all in one place. Come visit us.