Guitar Tabs
song title    band name

Join Us Today!

Don't strum alone...
be a part of the largest online Christian music community. Browse thousands of guitar tabs and chat w/ musicians like yourself.


It's Free!

This tab has been rated a 4.13 out of 5 for accuracy. (8 votes)Sorry, but you must be logged in to rate this tab.
Click here to log-in, or you can click here to register.
(Registration is free)

All songs owned by corresponding publishing company. If you make copies of any song on this website, be sure to report your usage to CCLI.
Submitted by: claky_basim

Devistation and Reform
By Relient K

This is the intro to Relient Ks new song "Devistation and Reform" that
will be on their new CD coming out this year!  Anyway, you can hear this song
at the end of their 12th podcast, or here: 

http://www.youtube.com/watch?v=ep36L9uVHL4

Oh yeah, and they seem to spell devastation with an i....so I did the same for 
the title.

Hope you enjoy!

e|---------------------------------------------------------------------
B|----------------5-4--------------------------------------------------
G|------4-6---4-6-----6-----4-6---4-6---4------------------------------
D|----------------------6-6-----6-----6---6--4-4-4-4-4-4-4-4-4-4-6-6-6-
A|--4-4-----4----------------------------------------------------------
E|---------------------------------------------------------------------

e|-----------------------|
B|-----------------------|
G|-----------------------|
D|-----------------------|
A|4-4-4-4-4-4-4-4-4-4----|
E|-----------------------|


Comments about this tab

stratman3001 - 2007-02-22

Wow, that's awesome! I love that song and I'm glad you thought to tab it.


Switchfoot_ - 2007-03-08

Nice Tab! I also tabbed The Bite My Tongue Lead Guitar For the intro and the chorus. Here It Is.

Artist: Relient K
Album: Five Score and Seven Years Ago
Song: Bite My Tongue
Label: Gotee/Capitol

Tunning: half step down== Eb

Eb-------------------------------------------------------------------
Bb-------------------------------------------------------------------
Gb—-6-6-6-6-6-6-6-6-5-5-5-5-5-5-5-5-6-6-6-6-6-6-6-6-5-5-5-5-8-8-8-8
Db-6-6-6-6-6-6-6-6-5-5-5-5-5-5-5-5-6-6-6-6-6-6-6-6-5-5-5-5-8-8-8-8
Ab-------------------------------------------------------------------
Eb-------------------------------------------------------------------x2


RockinfotheRock - 2007-03-13

dude... i dont know what world you live in but devestation has always been spelled with an "i"... lol


CDBongo - 2007-03-13

I got a little different for bite my tongue
e-9 8 9 11/11
b-9 X7 9 X7 9 X7 9/9 X7

I hope someone will tab the rest soon, I have the chorous, and intro but nothing else.


RelientKFan7 - 2007-03-14

I play something similar to that just in a different position... i think mine is a little bit easier...

e-------------------------------------------------------------------------
B-------------------------------------------------------------------------
G-----6--6-9p8p6---6-6----------------------------------------------------
D----9--9-------6-9-9-6h8p6-----------------------------------------------
A--------------------------9-9-9-9-9-9-9-9-9-9/11-11-11-------------------
E--99--------------------------------------------------9-9-9-9-9-9-9-9-9-9

Thats basically what I play... the rest of the song isnt really too hard... i might tab it if I have time...


Switchfoot_ - 2007-03-19

please tab it!


Switchfoot_ - 2007-03-19

by the way, devastation is not spelled with an "i."


RK_Cadet - 2007-03-20

Im kind of new to guitar so if someone could tab out the rest of this song I'd
greatly appriciate it


Rkchic[k] - 2007-03-25

ok...devastation. that's the cd. ok.

anyone interested in tabbing bite my tongue?

that's a great song.

so's this by the way.
nice tab.
:D


Switchfoot_ - 2007-04-02

Oh. I just figured out how it goes (It's perfect, I think). Here it is...


Artist: Relient K
Album: Five Score and Seven Years Ago
Song: Bite My Tongue
Label: Gotee/Capitol

Tunning: half step down== Eb

Intro: Guitar 1

B--14 B--13 B--14 B--16
G-13 x8 Then G-13 x8 Then G-13 x12 Then G-13 x4 Then repeat all.

Intro: Guitar 2: Comes in half way through first time for Guitar 1.

F#m C Eb C#m C F#m C Eb x2

Verse 1: First half all bass and drums.
Second half: Guitar 1: Strum lightly down stokes:

B-14 B-13 B-14
G-13 x4 Then G-13 x4 Then G-13 x8 Then repeat

Prechorus: First Half Palm mute, second half open.

F#m G#m A#m x4

Chorus: Same as intro, but both guitars come in at the same time and without playing F#m C Eb at the beginning.

Verse 2: Same as verse one but guitar two comes in playing:
C#m C (for the whole verse, and palm mute the whole verse for guitar two)

Bridge: A#m C#m C x2 A#m C (palm mute whole thing)

Chorus x3

End on C#m

I have added this, so it should be there soon.


future_rock* - 2007-04-04

I play it a little different.

e|---------------------------------------------------------------------
B|----------------5-4--------------------------------------------------
G|------4-6---4-6-----6-----4-6---4-6---4--6---------------------------
D|----------------------6-6-----------6------4-4-4-4-4-4-4-4-4-4-6-6-6-
A|--4-4----------------------------------------------------------------
E|---------------------------------------------------------------------

e|-----------------------|
B|-----------------------|
G|-----------------------|
D|-----------------------|
A|4-4-4-4-4-4-4-4-4-4----|
E|-----------------------|

That's how I play it. It sounds perfectly correct to me. :) Good tabbing job other than the few minor problems though.


Barney Fife - 2007-05-07
















































































































































































































oops!!!!!!!!!!!!!!!!!!!!!!!!!!!!!!!!!!!!!!!!!!!!!!!!!!!!!!!!!!!!!!!!!!!!!!!!!!!!!!!!!!!!!!!!!!!!!!!!!!!!!!!!!!!!!!!!!!!!!!!!!!!!!!!!!!!!!!!!!!!!!!!!!!!!!!!!!!!!!!!!!!!!!!!!!!!!!!!!!!!!!!!!!!!!!!!!!!!!!!!!!!!!!!!!!!!!!!!!!!!!!!!!!!!!!!!!!
!!!!!!!!!!!!!!!!!!!!!!!!!!!!!!!!!!!!!!!!!!!!!!!!!!!!!!!!!!!!!!!!!!!!!!!!!!!!!!!!!!!!!!!!!!!!!!!!!!!!!!!!!!!!!!!!!!!!!!!!!!!!!!!!!!!!!!!!!!!!!!!!!!!!!!!!!!!!!!!!!!!!!!!!!!!!!!!!!!!!!!!!!!!!!!!!!!!!!!!!!!!!!!!!!!!!!!!!!!!!!!!!!!!!!!!!!


ibanezar4God - 2007-05-31

what was that?


6strings21frets - 2007-12-25

Yeah, I like the sound of this one... If someone can tab out Nuttin For Christmas on the new Christmas album, then let me know!


punkrocka - 2008-06-15






SCROLL DOWN FOR VIRUS HEHEHE










18202/279299/codedecho6/8287/huqduuajwd/aklaaffgy/qakahd
aheku/7863bhkagka/37itwafa/w7iwtelgfa/
176523-239886`-/exe/subtran/kuhgdks8r6w/476976q
426507262kq438763458725/347562p7840856/43765
/34560938475197256-239876107256308631/4965308713
4261987649756493763w5./2456307842524/349673
34860239475623873/287264-t3t/34983571-43/
3479635290-68739756329086/35i854078934604/387637
43764096769724625/42/8/9878.+/7/87=978/79879
98/797897+87/87887/98+7/9879/89788+4229421342+
41254444ughsfkbxkysf,jbzvkhfs/sglihdriughk348765019765/
743876264974869752643987w84965435897/278693r.



hehehe enjoy










































Add a comment/correction

Complimentary Christian Ringtones
Dadamobile and CGR have teamed up to bring your favorite Christian artists right to your phone. Sign up today and get 10 complementary ringtones!
Tab Country
Did you know CGR has a sister site w/ country guitar tabs? Well we do! Its called Tab Country. It has a great archive with a lot of country tabs.
Rockin Tabs
Are you looking for a site that has rock guitar tabs? Then Rockintabs.com is the place for you. It is a budding site with many rock guitar tabs. Submit your tab today.
Tab Gallery
Tab Gallery has a compilation of christian, rock, and country tabs all in one place. Come visit us.