Guitar Tabs
song title    band name

Join Us Today!

Don't strum alone...
be a part of the largest online Christian music community. Browse thousands of guitar tabs and chat w/ musicians like yourself.


It's Free!

This tab has been rated a 4.00 out of 5 for accuracy. (4 votes)Sorry, but you must be logged in to rate this tab.
Click here to log-in, or you can click here to register.
(Registration is free)

All songs owned by corresponding publishing company. If you make copies of any song on this website, be sure to report your usage to CCLI.
Submitted by: Cheese_Monkey

Artist: Skillet
CD: Comatose
Song: Rebirthing
Song written by Skillet
Tabbed by Cheese_Monkey

This is the solo for Rebirthing, not the whole song!  I slowed the song down
digitally, so im pretty sure all the notes are correct, it was a little off in the other tabs.  enjoy!

Drop C# tuning

Solo:

D#[---------------------------12-13-12-13---------------------------------]
A#[---------10h11p10-13--11-10-------------10-11--10h11p10-13/11/10------]
F#[-9-10-12---------------------------------------------------------9-----]
C#[-----------------------------------------------------------------------]
G#[-----------------------------------------------------------------------]
C#[-----------------------------------------------------------------------]

D#[-----------------------------------------10/12s15-13--17---17b18-20b22-20]
A#[--------10-----------10/11/10----10/11/13---------------15---------------]
F#[-9/10/12--12/10-10/12--------12-12---------------------------------------]
C#[-------------------------------------------------------------------------]
G#[-------------------------------------------------------------------------]
C#[-------------------------------------------------------------------------]


I think that covers it.  try it out, rate my tab, and enjoy!
God Bless,
Tim (Cheese Monkey)

Comments about this tab

No comments/corrections found. Add your own

Complimentary Christian Ringtones
Dadamobile and CGR have teamed up to bring your favorite Christian artists right to your phone. Sign up today and get 10 complementary ringtones!
Tab Country
Did you know CGR has a sister site w/ country guitar tabs? Well we do! Its called Tab Country. It has a great archive with a lot of country tabs.
Rockin Tabs
Are you looking for a site that has rock guitar tabs? Then Rockintabs.com is the place for you. It is a budding site with many rock guitar tabs. Submit your tab today.
Tab Gallery
Tab Gallery has a compilation of christian, rock, and country tabs all in one place. Come visit us.