Guitar Tabs
song title    band name

Join Us Today!

Don't strum alone...
be a part of the largest online Christian music community. Browse thousands of guitar tabs and chat w/ musicians like yourself.


It's Free!

This tab has not yet been rated for accuracy.Sorry, but you must be logged in to rate this tab.
Click here to log-in, or you can click here to register.
(Registration is free)

All songs owned by corresponding publishing company. If you make copies of any song on this website, be sure to report your usage to CCLI.
Submitted by: luvadict

Im pretty sure that this is how the song goes.  If you play along with the c.d
then it should work.  Good luck and God bless.  Pleese send any comments or 
corrections to jakewynnbob@yahoo.com.

Drop D tuning

Intro
Acoustic
E---------------------------------------------------------------------------
B-----------2------------------2---------------------2-----------------2----
G-----------2------------------2---------------------2-----------------2-4--
D----2h3p2-0--33333-----2h3p2-0--33332222-----2h3p2-0--33333----2h3p2-0--4--
A---0-----2---33333----0-----2---33332222----0-----2---33333---0-----2---4--
D--0----------33333---0----------33332222---0----------33333--0-------------

Heavy Distortion
E---------------------------------------------------------
B---------------------------------------------------------
G---------------------------------------------------------
D--2222222-------2222222-------2222222-------2222222------
A--2222222-22-3--2222222-22-3--2222222-22-3--2222222-22-3-
D--0000000-22-3--0000000-22-3--0000000-22-3--0000000-22-3-

Verse
Acoustic
E---------------------------------------------
B-----------2------------------2--------------
G-----------2------------------2--------------
D----2h3p2-0--333333----2h3p2-0--3333222------ Repeat 4x
A---0-----2---333333---0-----2---3333222------
D--0----------333333--0----------3333222------

Chorus
Heavy Distortion
E-------------------------------2222------------------------------
B-------------------------------3333--111-------------------------
G-------------------------------2222--000-------------------------
D---222222-222222--222-222-222--0000--222---222-222-222--5555555-- 
A---222222-222222--222-222-222--------333---222-222-222--5555555--  
D---000000-000000--000-000-000--------------000-000-000--3333333-- 

E---------------222------------------------------
B---------------333-111--------------------------
G---------------222-000-------------------------- 
D--222-222-222--000-222--222-222-222--5555555--
A--222-222-222------333--222-222-222--5555555---- 
D--000-000-000-----------000-000-000--3333333----

After the second time the chorus
is played, play it again instead
of the original way!

E---------------------------------------------------------------
B---------------------------------------------------------------
G---------------------------------------------------------------
D---2222222--------2222222--------2222222-------2222222---------
A---2222222-22-33--2222222-22-33--2222222-22-33-2222222-22-33---
D---0000000-22-33--0000000-22-33--0000000-22-33-0000000-22-33---

Bridge
Distrotion

E----------------------------------------------------------------
B----------------------------------------------------------------
G----------------------------------------------------------------
D------------------------------------2222222------2222222-22-3---Repeat 2x
A--650-----6502030--650-----6502030--2222222-22-3-2222222-22-3---
D------230--------------230----------0000000-22-3-0000000-22-3---

E--2---2---2---2----2h32h32h32h3/5-2h32h32h32h3/6-2h32h32h32h3/5-2h32h32h32h3/6
B--3-1-3-1-3-1-3-1--2h32h32h32h3/5-2h32h32h32h3/6-2h32h32h32h3/5-2h32h32h32h3/6
G--2-0-2-0-2-0-2-0-------------------------------------------------------------
D--0-2-0-2-0-2-0-2-------------------------------------------------------------
A----3---3---3---3-------------------------------------------------------------
D------------------------------------------------------------------------------

Acoustic

E-------------------------------------------
B-----------2------------------2------------
G-----------2------------------2------------
D----2h3p2-0--333333----2h3p2-0--33332222---Repeat 2x
A---0-----2---333333---0-----2---33332222---
D--0----------333333--0----------33332222---

Ending
Heavy Distortion

E-------------------------------------------------------
B-------------------------------------------------------
G-------------------------------------------------------
D--2222222-22-3-2222222-22-3-2222222-22-3-222-222-222---
A--2222222-22-3-2222222-22-3-2222222-22-3-222-222-222---
D--0000000-22-3-0000000-22-3-0000000-22-3-000-000-000---

So, yeah.  Thats pretty much it.  The only part im not sure about is the first
part of the bridge, but the rest should be accurate.  Thanks.  If you have any
requests for tabs, e-mail me at jakewynnbob@yahoo.com

Order:
Intro
Verse
Chorus
Verse
Chorus
Bridge 
Acoustic part
ending

Comments about this tab

No comments/corrections found. Add your own

Complimentary Christian Ringtones
Dadamobile and CGR have teamed up to bring your favorite Christian artists right to your phone. Sign up today and get 10 complementary ringtones!
Tab Country
Did you know CGR has a sister site w/ country guitar tabs? Well we do! Its called Tab Country. It has a great archive with a lot of country tabs.
Rockin Tabs
Are you looking for a site that has rock guitar tabs? Then Rockintabs.com is the place for you. It is a budding site with many rock guitar tabs. Submit your tab today.
Tab Gallery
Tab Gallery has a compilation of christian, rock, and country tabs all in one place. Come visit us.