Guitar Tabs
song title    band name

Join Us Today!

Don't strum alone...
be a part of the largest online Christian music community. Browse thousands of guitar tabs and chat w/ musicians like yourself.


It's Free!

Juliana Theory, The - August in Bethany

This tab has not yet been rated for accuracy.Sorry, but you must be logged in to rate this tab.
Click here to log-in, or you can click here to register.
(Registration is free)

All songs owned by corresponding publishing company. If you make copies of any song on this website, be sure to report your usage to CCLI.
August in Bethany
by The Juliana Theory
Taken from the album UNDERSTAND THIS IS A DREAM 
Tooth and Nail Records
1999 We Own Your Songs (SESAC)/No You Don't, We Own Them (SESAC)

For the intro and verses, acoustic guitar strums this
    F               F/Fb            Bb
E----------------------------------------------
B----------------------------------------------
G-----------------------------------3--3--3--3-
D----3--3--3--3--3---3--3--3--3--3--3--3--3--3-
A----3--3--3--3--3---3--3--3--3--3--1--1--1--1
E----1--1--1--1--1---0--0--0--0--0------------

Listen to CD for exact strumming patterns

When the band kicks in after he sings "as i sit here helpless.."
pick this lead while acoustic strums the verse chords

E-5----6h5h--8-- (easiest to play in the open "D" chord shape on the 5th fret)
B--6-6----6----
G---5----------
D--------------
A--------------
E--------------

Chorus: 
(Dm  C  F) x2

the mellow little lead that is played near the end goes like this

E------------------------------------------
B------------------------------------------
G----------------5----5---5----3-----------
D----8--7--5--3---------3--------3---1--3--
A------------------------------------------
E-------------------0----------------------

Sorry, i could not write out the octave parts, its probaly
the notes that are in the chorus...any questions, email me
at fuzzbox51@hotmail.com   i am working on "Music Box Superhero"
and "This is not a Love Song", so keep posted!

Comments about this tab

No comments/corrections found. Add your own

Complimentary Christian Ringtones
Dadamobile and CGR have teamed up to bring your favorite Christian artists right to your phone. Sign up today and get 10 complementary ringtones!
Tab Country
Did you know CGR has a sister site w/ country guitar tabs? Well we do! Its called Tab Country. It has a great archive with a lot of country tabs.
Rockin Tabs
Are you looking for a site that has rock guitar tabs? Then Rockintabs.com is the place for you. It is a budding site with many rock guitar tabs. Submit your tab today.
Tab Gallery
Tab Gallery has a compilation of christian, rock, and country tabs all in one place. Come visit us.